The CranberriesPromises (bass) Текст

0 Голосов
Verse: 
G-|----------------|----------------|----------------|----------------|
D-|----------------|----------------|----------------|----------------|
A-|7-7---7-7-7---7-|7-7---7-7-7-----|----------------|----------------|
E-|----------------|----------------|7-7---7-7-7---7-|7-7---7-7-7-----|

G-|----------------|----------------|----------------|----------------|
D-|----------------|----------------|----------------|----------------|
A-|5-5---5-5-5---5-|5-5---5-5-5-----|----------------|------------5---|
E-|----------------|----------------|8-8---8-8---8-8-|--8-8---8-------|
. . . . . . . . . .

Chorus:
G-|------------------|------------------|------------------|
D-|------------------|------------------|------------------|
A-|7-7-7-7-7-7-7-7-|--------------------|5-5-5-5-5-5-5-5---|
E-|------------------|7-7-7-7-7-7-7-7---|------------------|

G-|----------------|----------------|
D-|----------------|----------------|
A-|----------------|------------5---|
E-|8-8---8-8---8-8-|--8-8---8-------|
. . . . . . . . . .

Ending:
G-|----------------|----------------|----------------|----------------|
D-|----------------|----------------|----------------|----------------|
A-|7-7---7-7---7-7-|--7-7---7---7---|----------------|----------------|
E-|----------------|----------------|7-7---7-7---7-7-|--7-7---7---7---|
. . . . . . . . . . . . . . . . . . . .

G-|----------------|----------------|----------------|----------------|
D-|----------------|----------------|----------------|----------------|
A-|5-5---5-5---5-5-|--5-5---5---5---|----------------|----------------|
E-|----------------|----------------|8-8---8-8---8-8-|--8-8---8---8---|
Другие песни: