The Black KeysMidnight In Her Eyes Текст

0 Голосов
Midnight... 

E :--------------------------------------------------------------------
B :----2--*----0-----1-----3--1---------2--*----0-----1-----3--4-3-2---
G :----2--*----0--2----2--------2-0-----2--*----0--2----2--------------
D :---------------0--------------------------------0-------------------
A :0--------------------------------0------------------------------0---
E :---------3-------------------------------0-3------------------------

You never thought..
E :---------------------------------------------------------5-5---5-5--
B :2--*----0-----1-----3--1---------------------------------8-8-7-5-5--
G :2--*----0--2----2--------2-0------2-*---------------6-*--6---6-6-6--
D :-----------0----------------------4-*---------------7-*-------------
A :----------------------------------4-*---------------7-*-------------
E :---0--3---------------------------2-*---------------5-*-------------

Midnight is in her eyes...
E :------------------------------------------------------2-2-2-2-2-*---
B :------------------------------------------------------1-1-1-1-1-*---
G :------------------------------------------------------2-2-2-2-2-*---
D :------------------------------------------------------0-0-0-0-0-*---
A :-------------3---4---5-5-5-5--3---2-----------3---4-----------------
E :-----5-5-5-5--------------------------5-5-5-5-----------------------

Chorus:
E :--------------------------------------------------------------------
B :--------------------------------------------------------------------
G :--------------------------------------------------------------------
D :--------------------------------------------------------------------
A :---------------3-5---3---5^6-5-3----------------3-5---3---5^6-5-3---
E :-5---5-----3-5---------5----------5---5-----3-5---------5-----------

I see her everywhere...
E :----------2--------/-/-5-5-9-9-9-9|
B :---0------3------2-/-/-5-5-8-8-8-8|
G :---0------2------2-/-/-6-6-9-9-9-9|
D :---0------0------2----------------|
A :---2-------------0-----0----------|
E :---3------------------------------|

Well, listen to the song for the rythm. Plus, play the chorus under the solo (Blues Pentatonic in A).
Другие песни: