The Black KeysJust A Little Heat Текст

0 Голосов
-------------------------------------------------------------------------------
Just A Little Heat - The Black Keys
-------------------------------------------------------------------------------
Tabbed by: hyphensprint (dash)

I HAVE BEEN SUBMITTING THIS TAB AND IT KEEPS GETTING DENIED. IT IS CORRECT! NOTICE THE
TUNING PLEASE!

d|--------------------------------------------------|
B|-------------------------------3b~~(p0)-----------|1st part of main riff
G|-------------------------------3b~~(p0)-----------|
D|--------------------------------------------------|
G|-0--3--5--5--3--5--0--5--3--0---------------------|
D|--------------------------------------------------|

d|-------------------------------------------------------|
B|-------------------------------11s12/~~----------------|2nd part of main riff
G|-------------------------------11s12/~~----------------|
D|-------------------------------11s12/~~----------------|
G|-0--3--5--5--3--5--0--5--3--0--------------------------|
D|-------------------------------------------------------|

then: quieter, maybe muted a little while he sings
d|-----------------------------------------------------------------------------|
B|-----------------------------------------------------------------------------|
G|-----------------------------------------------------------------------------|
D|-----------------------------------------------------------------------------|
G|-0--3--5--5--3--5--0--5--3--0----------------(repeat as needed)--------------|
D|-------------------------------0-3b------------------------------------------|

then:
d|--------------------------------------------------------------------------|
B|-s6s5~~---s3~~------------------------------------------------------------|
G|-s6s5~~---s3~~------------------------------------------------------------|
D|-s6s5~~---s3~~------------------------------------------------------------|
G|-s6s5~~---s3~~------------------------------------------------------------|
D|--------------------------------------------------------------------------|
(again repeat as needed then go back to the main riff with a slide up the neck)
Другие песни: