The Black KeysElevator Текст

0 Голосов
Tuning: Drop D

Verse:
(0:00-0:16)
e|---------------------------------------------------------------------------|
B|---------------------------------------------------------------------------|
G|---------------------------------------------------------------------------|
D|-----------------3---------------------------------------------------------|x2
A|-3-5---0-3-5-3-5-----0-0-3-5---0-3-5-3-0---0-0-----------------------------|
D|-----------------------------------------3---------------------------------|

(0:16-0:22)
e|---------------------------------------------------------------------------|
B|---------------------------------------------------------------------------|
G|-----------------3---------------------------------------------------------|
D|-3-5---0-3-5-3-5-----0-0-3-5---0-3-5-3-0-----------------------------------|
A|-----------------------------------------1-0-0-----------------------------|
D|---------------------------------------------------------------------------|

(0:22-0:29)
e|---------------------------------------------------------------------------|
B|---------------------------------------------------------------------------|
G|---------------------------------------------------------------------------|
D|-----------------3---------------------------------------------------------|
A|-3-5---0-3-5-3-5-----0-0-3-5---0-3-5-3-0---0-0-----------------------------|
D|-----------------------------------------3---------------------------------|

(0:29-0:36)
e|---------------------------------------------------------------------------|
B|---------------------------------------------------------------------------|
G|-----------------3---------------------------------------------------------|
D|-3-5---0-3-5-3-5-----0-0-3-5---0-3-5-3-0-----------------------------------|
A|-----------------------------------------1-0-0-----------------------------|
D|---------------------------------------------------------------------------|

(0:36-0:42)
e|---------------------------------------------------------------------------|
B|---------------------------------------------------------------------------|
G|---------------------------------------------------------------------------|
D|-----------------3---------------------------------------------------------|
A|-3-5---0-3-5-3-5-----0-0-3-5---0-3-5-3-0-----------------------------------|
D|-----------------------------------------3---------------------------------|

Chorus:
(0:42-1:03)
e|---------------------------------------------------------------------------|
B|---------------------------------------------------------------------------|
G|---------------------------------------------------------------------------|
D|---------3---------------3-------3---5b7-5-3-------------------------------|x3
A|-5-5-5-5---5-3---0-0-3-5---5-5-5---5---------------------------------------|
D|---------------------------------------------------------------------------|

Break:
(1:03-1:10)
e|---------------------------------------------------------------------------|
B|---------------------------------------------------------------------------|
G|---------------------------------------------------------------------------|
D|---------------------------------------------------------------------------|
A|-----------------3~~-------------------------------------------------------|
D|-5~~-7~~-3~~-5~~-----------------------------------------------------------|

Verse:
(1:10-1:24)
e|---------------------------------------------------------------------------|
B|---------------------------------------------------------------------------|
G|---------------------------------------------------------------------------|
D|-----------------3---------------------------------------------------------|x2
A|-3-5---0-3-5-3-5-----0-0-3-5---0-3-5-3-0---0-0-----------------------------|
D|-----------------------------------------3---------------------------------|

(1:24-1:31)
e|---------------------------------------------------------------------------|
B|---------------------------------------------------------------------------|
G|-----------------3---------------------------------------------------------|
D|-3-5---0-3-5-3-5-----0-0-3-5---0-3-5-3-0-----------------------------------|
A|-----------------------------------------1-0-0-----------------------------|
D|---------------------------------------------------------------------------|

(1:31-1:38)
e|---------------------------------------------------------------------------|
B|---------------------------------------------------------------------------|
G|---------------------------------------------------------------------------|
D|-----------------3---------------------------------------------------------|
A|-3-5---0-3-5-3-5-----0-0-3-5---0-3-5-3-0---0-0-----------------------------|
D|-----------------------------------------3---------------------------------|

(1:38-1:45)
e|---------------------------------------------------------------------------|
B|---------------------------------------------------------------------------|
G|-----------------3---------------------------------------------------------|
D|-3-5---0-3-5-3-5-----0-0-3-5---0-3-5-3-0-----------------------------------|
A|-----------------------------------------1-0-0-----------------------------|
D|---------------------------------------------------------------------------|

(1:45-1:49)
e|---------------------------------------------------------------------------|
B|---------------------------------------------------------------------------|
G|---------------------------------------------------------------------------|
D|-----------------3---------------------------------------------------------|
A|-3-5---0-3-5-3-5-----0-0-3-5-----------------------------------------------|
D|---------------------------------------------------------------------------|

Chorus:
(1:51-2:12)
e|---------------------------------------------------------------------------|
B|---------------------------------------------------------------------------|
G|---------------------------------------------------------------------------|
D|---------3---------------3-------3---5b7-5-3-------------------------------|x3
A|-5-5-5-5---5-3---0-0-3-5---5-5-5---5---------------------------------------|
D|---------------------------------------------------------------------------|

Break:
(2:12-2:26)
e|---------------------------------------------------------------------------|
B|---------------------------------------------------------------------------|
G|---------------------------------------------------------------------------|
D|---------------------------------------------------------------------------|
A|-----------------3~~-------------------------------------------------------|
D|-5~~-7~~-3~~-5~~-----3~~-2~~-1~~-0~~---------------------------------------|

(2:32-2:41)
e|---------------------------------------------------------------------------|
B|---------------------------------------------------------------------------|
G|---------------------------------------------------------------------------|
D|---------------------------------------------------------------------------|
A|---------------------------------------------------------------------------|
D|-3~~-2~~-1~~-0~~-----------------------------------------------------------|

Chorus:
(2:41-3:06)
e|---------------------------------------------------------------------------|
B|---------------------------------------------------------------------------|
G|---------------------------------------------------------------------------|
D|---------3---------------3-------3---5b7-5-3-------------------------------|x3
A|-5-5-5-5---5-3---0-0-3-5---5-5-5---5---------------------------------------|
D|---------------------------------------------------------------------------|

Break:
(3:06-3:14)
e|---------------------------------------------------------------------------|
B|---------------------------------------------------------------------------|
G|---------------------------------------------------------------------------|
D|---------------------------------------------------------------------------|
A|-----------------5~~-------------------------------------------------------|
D|-5~~-7~~-3~~-5~~-----------------------------------------------------------|

Verse:
(3:14-3:27)
e|---------------------------------------------------------------------------|
B|---------------------------------------------------------------------------|
G|---------------------------------------------------------------------------|
D|-----------------3---------------------------------------------------------|x2
A|-3-5---0-3-5-3-5-----0-0-3-5---0-3-5-3-0---0-0-----------------------------|
D|-----------------------------------------3---------------------------------|

(3:27-3:34)
e|---------------------------------------------------------------------------|
B|---------------------------------------------------------------------------|
G|-----------------3---------------------------------------------------------|
D|-3-5---0-3-5-3-5-----0-0-3-5---0-3-5-3-0-----------------------------------|
A|-----------------------------------------1-0-0-----------------------------|
D|---------------------------------------------------------------------------|

(3:34-3:42)
e|---------------------------------------------------------------------------|
B|---------------------------------------------------------------------------|
G|---------------------------------------------------------------------------|
D|-----------------3---------------------------------------------------------|
A|-3-5---0-3-5-3-5-----0-0-3-5---0-3-5-3-0---0-0-3-5-------------------------|
D|-----------------------------------------3---------------------------------|
Другие песни: