Tenacious DKyle Quit The Band Текст

0 Голосов
-----------------------------------------------------------

Kyle Quit the Band - Tenacious D
-----------------------------------------------------------

Tabbed by: Sam Haberman

Alright, this is most of Kyle Quit the Band by Tenacious D, the greatest band in the world.
Sorry, no solo. But it is neverless a great song. Oh, and all barre chords.

B A E A B
Last week, Kyle quit the band. Now we're back together.
e|--------|
B|--------|
G|-8h9-8--|
D|--------|
A|--------|
E|--------|
B A E A
Misunderstandings, didn't understand. Doesn't matter, Now

B
we're back together again. Ohhhhhh, Fa La La La La

F E B E B
Couldn't split up Kato and Nash. Thats true.

F E B E B
Couldn't split up Tengo and Kash Thats also true.

E B F E
This is our song of exultant joy cause, we only came to

B E B
kick some ass.

F E B E B
Rock the fucking house, and kick some ass.

F E B E B
What we gonna do with all the cash?

A D A
Smoke Hash!

G C G C A D B
And then we thrash! Throw a big old bash ya'll

G C G C A D B
And everyone is invited to the

G C G C A D B
Baaaaaaaaaash! C'mon Kyle, one time c'mon!

Instead of the solo i'd just repeat F F E E B E B four times and end on B.


CHORD CHART
B A E F D G C
e|---7------5------7-----9-----5-----3-----3--|
B|---7------5------9----11-----7-----3-----5--|
G|---8------6------9----11-----7-----4-----5--|
D|---9------7------9----11-----7-----5-----5--|
A|---9------7------7-----9-----5-----5-----3--|
E|---7------5------7-----9-----5-----3-----3--|

Sorry about the lack of the solo. Hopefully the chords help. Oh, and if you see anything
thats wrong plese feel free to tell me. Oh, and, Obey the D! Thanks.
Другие песни: