Ten Foot PoleBroken Bubble Текст

0 Голосов
------------------------------------------------------------------
BROKEN BUBBLE - Ten Foot Pole
------------------------------------------------------------------

By: Dave Wilson (nougeypooge@hotmail.com for requests)

Intro (x6)
G|---------------------------------------------------------------|
D|---------------------------------------------------------------|
A|-------------1-1-1-1-1-1--2-2-2-2-2-2--------------------------|
E|-2-2-2-2-2-2--------------------------2-2-2-2-2-2--------------|

Verse (x4)
G|---------------------------------------------------------------|
D|---------------------------------------------------------------|
A|-9-9-9-9-9-9-9-9-----------------------------------------------|
E|-----------------9-9-9-9-9-9-9-9--6-6-6-6-6-6-6-6-7-7-2-2------|

Chorus (x4)
G|---------------------------------------------------------------|
D|---------------------------------------------------------------|
A|-6-6-6-6-6-6--4-4-4-4-4-4--6-6-6-6-6-6--2-2-2-2--4-4-4-4-------|
E|---------------------------------------------------------------|

Verse (x4)
Chorus (x4)
Intro (x4)
Chorus (x4)
Другие песни: