System Of A DownI E A I A I O Текст, аккорды

0 Голосов
E|-16----13^16----13^16----13^16----13^16----13^16----|
B|----15-------15-------15-------15-------15-------15-|
G|----------------------------------------------------|
D|----------------------------------------------------|
A|----------------------------------------------------|
E|----------------------------------------------------|

E|-16----13^16----13^16----13^16----13^16----13^16-|
B|----15-------15-------15-------15-------15-------|
G|-------------------------------------------------|
D|-------------------------------------------------|
A|-------------------------------------------------|
E|-------------------------------------------------|

1:16----13^16----13^16----13^16----13^|16----13^16----13^16----13^16----13^-|
B|---15-------15-------15-------15----|---15-------15-------15-------15-----|
G|------------------------------------|-------------------------------------|
D|------------------------------------|-------------------------------------|
A|------------------------------------|-------------------------------------|
E|------------------------------------|-------------------------------------|

1:16----13^16----13^16----13^16----13^|16----13^16----13^16-|
B|---15-------15-------15-------15----|---15-------15-------|
G|------------------------------------|---------------------|
D|------------------------------------|---------------------|
A|------------------------------------|---------------------|
E|------------------------------------|---------------------|

B
E|----------------|
B|----------------|
G|----------------|
D|-1^0--0--1^0--0-|
A|-1^0--0--1^0--0-|
E|-1^0--0--1^0--0-|

C
7x: 1x:
E|-----------------|-----------|
B|-----------------|-----------|
G|-----------------|-----------|
D|-1-0-0-0-0-0-0-0-|-1-0-0-0-0-|
A|-1-0-0-0-0-0-0-0-|-1-0-0-0-0-|
E|-1-0-0-0-0-0-0-0-|-1-0-0-0-0-|

D
4x:
E|------------------|
B|------------------|
G|-7-5-7-5----------|
D|------------------|
A|----------5-3-5-3-|
E|------------------|

D'
4x:
E|--------------------|
B|--------------------|
G|-10-9-10-9----------|
D|--------------------|
A|------------8-7-8-7-|
E|--------------------|

E
E|---------------------------------|-----------------------------|
B|---------------------------------|-----------------------------|
G|---------------------------------|-----------------------------|
D|---------------------------------|-----------------------------|
A|---------------------------------|-----------------------------|
E|-0-0-0-0-0-0-3-3-2-2-0-0-0-0-0-0-|-5-5-5-5-5-5-3-3-2-2-0--0--0-|

E|-----------------------------|--------------------------|
B|-----------------------------|--------------------------|
G|-----------------------------|--------------------------|
D|-----------------------------|--------------------------|
A|-----------------------------|--------------------------|
E|-0-0-0-0-3-3-2-2-0-0-0-0-0-0-|-5-5-5-5-5-5-3-3-2-2-0--0-|

F
E|------------------------------|------------------------------|
B|------------------------------|------------------------------|
G|------------------------------|------------------------------|
D|-3----------------------------|-5----------------------------|
A|-3----------------------------|-5----------------------------|
E|-3--0-0-0-0--0-0-0-0--0-0-0-0-|-5--0-0-0-0--0-0-0-0--0-0-0-0-|

E|------------------------------|------------------------------|
B|------------------------------|------------------------------|
G|------------------------------|------------------------------|
D|-3----------------------------|-5----------------------------|
A|-3----------------------------|-5----------------------------|
E|-3--0-0-0-0--0-0-0-0--0-0-0-0-|-5--0-0-0-0--0-0-0-0--0-0-0-0-|

G
E|------------------------------------------------|
B|--------10----10-11-10---------------10--8------|
G|-7--8-7----------------7----7--8-7-7------------|
D|----------------------------------------------0-|
A|------------------------------------------------|
E|------------------------------------------------|

E|------------------------------------------------------------------|
B|--------10----10-11-10---------------10--11---11-11-11-11-11b..13-|
G|-7--8-7----------------7----7--8-7-7------------------------------|
D|------------------------------------------------------------------|
A|------------------------------------------------------------------|
E|------------------------------------------------------------------|

H
4x: 3x: 1x:
E|-------------------------|--------------------------|------------------------|
B|-------------------------|-7-8-7--8-7-8-7-5-5-7-7-7-|-7--8-7--8-7--8-7---5-5-|
G|-7-8-7-8-7-8-7-5-5-7-7-7-|-7-8-7--8-7-8-7-5-5-7-7-7-|-7--8-7--8-7--8-7---5-5-|
D|-------------------------|--------------------------|------------------------|
A|-------------------------|--------------------------|------------------------|
E|-------------------------|--------------------------|------------------------|

I
2x:
E|--------------------------|
B|--------------------------|
G|--------------------------|
D|-0---3-2--0----5---3-2--0-|
A|-0---3-2--0----5---3-2--0-|
E|-0---3-2--0----5---3-2--0-|

ORDER:
=====

A
B 4x
C
D
B 2x
D
B 2x
D'
B 2x
D
B 2x
E
B 4x
D
B 2x
D
B 2x
D'
B 2x
D
B 2x
E
B 4x
F
B 4x
G
H
I
B 4x
F
B 4x
Другие песни: