Symphony XInferno Текст

0 Голосов
Symphony X 

Inferno
Album: The Odyssey
---------------------------------------------------------------------------
Inferno - Symphony X
---------------------------------------------------------------------------
Tabbed by:Riqz85
Email:Riqz85@yahoo.com

Tuning:Standard
Intro
-------------------------------------------------------------
-------------------------------------------------------------
-13-12-10-12-0-0-0-0-10-8-7-0-8-7-5-0----13-12-10-12-0-0-0-0-
-------------------------------------------------------------
-------------------------------------------------------------
-------------------------------------------------------------


-------------------------------------------------------------
-------------------------------------------------------------
-10-8-7-0-8-7-5-0-7-5-4-0---1-0-1-0-0-0-1-0-1-4-1-0-7-5-4-0-1
-------------------------------------------------------------
-------------------------------------------------------------
-------------------------------------------------------------


-------------------------------------------------------------
-------------------------------------------------------------
-0-1-0-0-0-1-0-1-4-1-0---13-12-10-12-0-0-0-0-10-8-7-0-8-7-5-0
-------------------------------------------------------------
-------------------------------------------------------------
-------------------------------------------------------------

passe 1
---------------------------------------- --10----------------
---------------------------------------- -----13-12----------
-13-12-10-12-0-0-0-0-10-8-7-0-12-10-8-0- -----------13-12-10-
---------------------------------------- --------------------
---------------------------------------- --------------------
---------------------------------------- --------------------


-16-15-13-11-10----10----------------------------------------
----------------13----13-12----------------------------------
----------------------------13-12-10-13-12-10----------------
----------------------------------------------13-12-10-9----9
---------------------------------------------------------10--
-------------------------------------------------------------


----------------
----------------
----------10-12-
-10-12-13-------
----------------
----------------



Oo>=-=-==-=-===============/=================-=-==-=-==-=-==-=-===============/=================-=-==-=-==-=-==-=-===============/=================-=-==-=-==-=-==-=-===============/=================-=-==-=-==-=-==-=-===============/=================-=-==-=-==-=-==-=-===============/=================-=-==-=-==-=-==-=-===============/=================-=-==-=-==-=-==-=-===============/=================-=-==-=-==-=-==-=-===============/=================-=-==-=-=
Другие песни: