Sum 41Still Waiting Текст

0 Голосов
Intro:
Guitar 1(Palm muted) So am I still waiting...
|----------------------------------------------------------------------x
|----------------------------------------------------------------------x
|-9-9-9-9-9-9-9-9--5-5-5-5-5-5-5-5-------------------------------------x
|-9-9-9-9-9-9-9-9--5-5-5-5-5-5-5-5--5-5-5-5-5-5-5-5--9-9-9-9-9-9-9-9---x
|-7-7-7-7-7-7-7-7--3-3-3-3-3-3-3-3--5-5-5-5-5-5-5-5--9-9-9-9-9-9-9-9---x
|---------- ------------------------3-3-3-3-3-3-3-3--7-7-7-7-7-7-7-7---x

|----------------------------------------------------------------------x
|----------------------------------------------------------------------x
|-9-9-9-9-9-9-9-9--5-5-5-5-5-5-5-5-------------------7-7-7-7-7-7-7-7-7-x
|-9-9-9-9-9-9-9-9--5-5-5-5-5-5-5-5--5-5-5-5-5-5-5-5--7-7-7-7-7-7-7-7-7-x
|-7-7-7-7-7-7-7-7--3-3-3-3-3-3-3-3--5-5-5-5-5-5-5-5--5-5-5-5-5-5-5-5-5-x
|-----------------------------------3-3-3-3-3-3-3-3--------------------x
Последний аккорд во вступлении не глушится.

Bridge 1:

Guitar 2
|-------------------------------------------x
|-------------------------------------------x
|-12-11-12---12-11-12---12-11-12-14-12-11-7-x }x2
|-10--9-10---10--9-10---10--9-10-12-10--9-5-x
|-------------------------------------------x
|-------------------------------------------x

Guitar 1
|--------------------------------------------------------------------x
|--------------------------------------------------------------------x
|------------------5-5-5-5-5-5-5-5-------------------5-5-5-5-4-4-4-4-x }x2
|-2-2-2-2-2-2-2-2--5-5-5-5-5-5-5-5--2-2-2-2-2-2-2-2--5-5-5-5-5-5-5-5-x
|-2-2-2-2-2-2-2-2--3-3-3-3-3-3-3-3--2-2-2-2-2-2-2-2--3-3-3-3-2-2-2-2-x
|-0-0-0-0-0-0-0-0-------------------0-0-0-0-0-0-0-0------------------x

Verse 1:

Guitar 1 Drop dead a bullet to my head...
|-------------------------------------------------------------x
|-------------------------------------------------------------x
|-------------------------------------------------------------x
|-2-2-2-2-2-2-2-2--8/7-8/7-57--2-2-2-2-2-2-2-2--5-5-5-5-5-2---x
|-2-2-2-2-2-2-2-2--8/7-8/7-57--2-2-2-2-2-2-2-2--5-5-5-5-5-2---x
|-0-0-0-0-0-0-0-0--6/5-6/5-35--0-0-0-0-0-0-0-0--3-3-3-3-3-0---x
_____pm______/ _____pm______/

|-------------------------------------------------------------x
|-------------------------------------------------------------x
|-----------------------------------------------4-4-4-4-4-4/7-x
|-2-2-2-2-2-2-2-2--8/7-8/7-57--2-2-2-2-2-2-2-2--4-4-4-4-4-4/5-x
|-2-2-2-2-2-2-2-2--8/7-8/5-55--2-2-2-2-2-2-2-2--2-2-2-2-2-2/5-x
|-0-0-0-0-0-0-0-0--6/5-6/5-35--0-0-0-0-0-0-0-0----------------x
_____pm______/ ______pm_____/


Chorus:

Guitar 1 and Guitar 2 So am I still waiting...
|--------------------------------------------------------------------x
|--------------------------------------------------------------------x
|-9-9-9-9-9-9-9-9--5-5-5-5-5-5-5-5-----------------------------------x }x2
|-9-9-9-9-9-9-9-9--5-5-5-5-5-5-5-5--5-5-5-5-5-5-5-5--9-9-9-9-9-9-9-9-x
|-7-7-7-7-7-7-7-7--3-3-3-3-3-3-3-3--5-5-5-5-5-5-5-5--9-9-9-9-9-9-9-9-x
|-----------------------------------3-3-3-3-3-3-3-3--7-7-7-7-7-7-7-7-x

Post-Chorus:

Guitar 2 играет BRIDGE 1 (свою часть), а Guitar 1 играет это:
|----------------------------------------------x
|----------------------------------------------x
|-------------5-5-5----------------5-5-5--4-4--x x1
|-2-2-2-------5-5-5-------2-2-2----5-5-5--5-5--x
|-2-2-2-------3-3-3-------2-2-2----3-3-3--2-2--x
|-0-0-0-------------------0-0-0----------------x

Затем снова играется Verse, Chorus

Bridge 2:

Guitar 2
|-------------------------------x
|-------------------------------x
|-12--------11-------9-------11-x }x2
|-12--------11-------9-------11-x
|-10--------9--------7--------9-x
|-------------------------------x

Guitar 1
|--------------------------------------------------------------------x
|--------------------------------------------------------------------x
|------------------5--5-5--5-5-5-5-------------------4--4-4--2-2-2-2-x }x2
|-2--2-2--2-2-2-2--5--5-5--5-5-5-5--5--5-5--5-5-5-5--4--4-4--2-2-2-2-x
|-2--2-2--2-2-2-2--3--3-3--3-3-3-3--5--5-5--5-5-5-5--2--2-2--0-0-0-0-x
|-0--0-0--0-0-0-0-------------------3--3-3--3-3-3-3------------------x

Guitar 1 and Guitar 2
|------------------------------------------x
|------------------------------------------x
|-9-9-9-9-9-9-9-9--------------------------x }x4
|-9-9-9-9-9-9-9-9--10-10-10-12-12-12-12-12-x
|-7-7-7-7-7-7-7-7--10-10-10-12-12-12-12-12-x
|-------------------8--8--8-10-10-10-10-10-x

Interlude:

Guitar 1
|--------------------------------------------------------------------------x
|--------------------------------------------------------------------------x
|-9-9-9-9-9-9-9-9-9-9-9-9-9-9-9-9--12-12-12-12-12-12-12-12--11-11-11-11--7-x }x1
|-9-9-9-9-9-9-9-9-9-9-9-9-9-9-9-9--10-10-10-10-10-10-10-10--11-11-11-11--7-x
|-7-7-7-7-7-7-7-7-7-7-7-7-7-7-7-7--10-10-10-10-10-10-10-10---9--9--9--9--5-x
|--------------------------------------------------------------------------x

Guitar 2 (играет вместе с Guitar 1)
|-----------------------------------------------x
|-----------------------------------------------x
|-9-9-9---------5-5-5---------------------------x }x1
|-9-9-9---------5-5-5----------5-5-5----------9-x
|-7-7-7---------3-3-3----------5-5-5----------9-x
|------------------------------3-3-3----------7-x

Guitar 1:
riff 1 riff 2
|-------------x |-----------------x
|-------------x |-----------------x
|---4---------x x3, затем |-----------------x }x1
|-5---5p4-2h4-x |-5-4-4-5-7-5-4-5-x
|-------------x |-----------------x
|-------------x |-----------------x

|---x
|---x
|-4-x
|-4-x
|-2-x
|---x

Guitar 2 (играет вместе с Guitar 1)
|--------------------------------------------x
|--------------------------------------------x
|----------5-5-5-------------4-4-4-2-2-2-2-2-x }x2
|-2-2-2----5-5-5----5-5-5----4-4-4-2-2-2-2-2-x
|-2-2-2----3-3-3----5-5-5----2-2-2-0-0-0-0-0-x
|-0-0-0-------------3-3-3--------------------x

Затем два раза играется Chorus

Ending:

Guitar 1 and Guitar 2
|------------x
|------------x
|-9-9-9-9-9/-x
|-9-9-9-9-9/-x
|-7-7-7-7-7/-x
|------------x
Другие песни: