Suicide MachinesI Hate Everything Текст

0 Голосов
#----------------------------------PLEASE NOTE--------------------------------#

#This file is the author's own work and represents their interpretation of the#
#song. You may only use this file for private study, scholarship, or research.#
#-----------------------------------------------------------------------------#
#-- File created with Instab - http://www.pconline.com/~smcarey/instab.html --#
#-----------------------------------------------------------------------------#

Author/Artist: The Suicide Machines
Title: I Hate Everything
Transcribed by: Deftones1073
I Couldent find tabs for this.....so i just tabbed it myself.....
Im pretty sure its right....Enjoy!

------------------------------------------------------------------------------
------------------------------------------------------------------------------
------------7--6--2-2-2-2--7--6------------------x2---------------------------
---4-4-4-4--7--6--2-2-2-2--7--6-----------------------------------------------
---4-4-4-4--5--4--0-0-0-0--5--4-----------------------------------------------
---2-2-2-2--5--4--------------------------------------------------------------
Intro

------------------------------------------------------------------------------
------------------------------------------------------------------------------
------------------------------------------------------------------------------
---4-4-4-4--7-7-7-7--9-9-9-9--10-----------------x2---------------------------
---4-4-4-4--7-7-7-7--9-9-9-9--10----------------------------------------------
---2-2-2-2--5-5-5-5--7-7-7-7--8-----------------------------------------------
Verse

------------------------------------------------------------------------------
------------------------------------------------------------------------------
------------7--6--2-2-2-2--7--6-----------------------------------------------
---4-4-4-4--7--6--2-2-2-2--7--6------------------x2---------------------------
---4-4-4-4--5--4--0-0-0-0--5--4-----------------------------------------------
---2-2-2-2--5--4--------------------------------------------------------------
Chorus
Другие песни: