SugarfreeIkaw pala Текст

0 Голосов
Intro:(guitar) 
------------5-----------2------------------|
-------3----------3------------------------|
-------------------------------------------|
-------------------------------------------|
-------------------------------------------|
-------------------------------------------|

(do this 4x then A7 chord)

Bass: G - D - G -D - G - A7

D Am
Kung saan saan na napadpad
D Am
Naglakad, lumangoy, at lumipad
D Am
Tuwing akala ko, pag-ibig ay tunay na
D Am - D
Hindi pala, hindi pala

REFRAIN:
Em D/F# Em G
Nung hindi na nakatingin at saka ka dumating
G
Nandyan ka lamang pala
Em A - A7
Di ka lang nagsasalita

CHORUS:
D Em D/F# G
Ikaw pala, aking hinahanap
D Em D/F# G
Ang bahaghari ko sa likod ng ulap
D Em
Ikaw ang hulog ng langit, sa puso kong
napunit
D/F# G
Dahil sa dramang paulit-ulit
Em A - A7
Kanina ka pa ba nariyan

(REPEAT INTRO)

D
(Ikaw pala)
Am
Ang aking hinahanap-hanap
D
(ikaw pala)
Am
awit na di matanggal
sa aking isipan
D Am
Di na mahalaga, kung saan ako dalhin ng hangin
D Am
Basta’t nandito ka sa king piling

(REPEAT REFRAIN AND CHORUS)

ADLIB: (bass pattern nito is Em - G - D 2x)

----------------------------------------------|
--------------5-2------------5-2--------------|
-----------4--------------4------2------------|
-----2-4-5----------2-4-5---------------------|
----------------------------------------------|
----------------------------------------------|

CODA:
F Dm
ohhhh,ohhhhh (2X)
Bb F
ahhh, ahhhh
Bb A - A7
ahhh, ahahaaahhh..

(REPEAT CHORUS EXCEPT LAST LINE)
G D/F#
ikaw pala,ahhahaahhh
Em A - A7
ahhaahhhhhhhhhhhhhhh
D
ikaw pala

ENDING:(Do pattern chords: D - Em - D/F# - G)2x
sino?
nasaan?
kailan
ka pa?
D - Dsus - D
ikaw pala
Другие песни: