SublimeNew Thrash Текст

0 Голосов
hey heres New Thrash by Sublime....

Song title: New Thrash
Artist: Sublime
Albulm: 40 oz to freedom
Tabbed by: Jeff Longo (the master pimp of all things)

G---------------------------------------------------------------------------
------------------------------------
D---------------------------------------------------------------------------
-------------------------------------
A--------------------------5-5-5-5-5-5-5-5-5--8-8-8-8-8-8-8-8--10-10-10-10-1
0-10-10-10-
E---3-3-3-3-3-3-3-3---------------------------------------------------------
--------------------------------

Its not hard and its real fun to jam with in a band...

this is at the guitar solo
G
D--------5-4-3--------------------------------------
A-----------------5-4-2------------------------------
E--3-3------------------------------------------------

Thank you
Jeff (captain pimp)

pennywise987@yahoo.com
Другие песни: