SublimeBadfish Текст

0 Голосов
Author: Sublime

Title: Bad Fish Solo
Album: 40 oz. To Freedom
Tab By: Nate Brown
Email: Doxigogumus@hotmail.com


BAD FISH SOLO

(play with slight distortion)

E--------------------------------------------|
B--2-2-2-1p0---------------------------------|
G------------0-2-4-6-------------------------|
D--------------------6-5p4-42-0-------------|
A--------------------------------4-----------|
E--------------------------------------------|

E----------------6-3-0-----------------------|
B----------------------2-0-2-----------------|
G----------4p3---------------2---------------|
D----3h4-3-----4-----------------------------|
A--4-----------------------------------------|
E--------------------------------------------|
Другие песни: