StrokesSomeday Текст

0 Голосов
-------------------------------------------------------------------------------

Someday - Strokes
-------------------------------------------------------------------------------

Tabbed by Barney (Furry Monkey)


Tuning: standarad

Intro

e|-5-7-9-7-9-7-7-5--------------------------------|
B|-5-5-7-7-7-7-5-5--------------------------------|
G|-6-6-7-7-7-7-6-6--------------------------------|
D|------------------------------------------------|
A|------------------------------------------------|
E|------------------------------------------------|

Verses

e|-5-7-9-7-9-7-7-5--------------------------------|
B|-5-5-7-7-7-7-5-5--------------------------------|
G|-6-6-7-7-7-7-6-6--------------------------------|
D|------------------------------------------------|
A|------------------------------------------------|
E|------------------------------------------------|

Chorus

e|-9--12--9--7-10-7-5-9-5-------------------------|
B|-10-----10-9----9-7---7-------------------------|
G|-9------9--9----9-6---6-------------------------|
D|------------------------------------------------|
A|------------------------------------------------|
E|------------------------------------------------|

e|-9--12--9--7-10-7-5-9-5-------------------------|
B|-10-----10-9----9-7---7-------------------------|
G|-9------9--9----9-6---6-------------------------|
D|------------------------------------------------|
A|------------------------------------------------|
E|------------------------------------------------|

e|-9--12--9--7-10-7-5-9-5-------------------------|
B|-10-----10-9----9-7---7-------------------------|
G|-9------9--9----9-6---6-------------------------|
D|------------------------------------------------|
A|------------------------------------------------|
E|------------------------------------------------|

e|-9--12--9--7-10-7-5-9-5-------------------------|
B|-10-----10-9----9-7---7-9-----------------------|
G|-9------9--9----9-6---6-9-----------------------|
D|------------------------9-X-32------------------|
A|------------------------7-----------------------|
E|------------------------------------------------|

Bridge

e|------------------------------------------------|
B|------------------------------------------------|
G|------------------------------------------------|
D|------------------------------------------------|
A|-----------0-0-2-2-5-5-0-0----------------------|
E|------------------------------------------------|

e|-5-7-9-7-9-7-7-5--------------------------------|
B|-5-5-7-7-7-7-5-5--------------------------------|
G|-6-6-7-7-7-7-6-6--------------------------------|
D|------------------------------------------------|
A|------------------------------------------------|
E|------------------------------------------------|

Order Of Song

Intro X 2
Verse X 4
Chorus
Bridge
Verse X 2
Chorus

End On

e|--5----------------------------------------------|
B|--5----------------------------------------------|
G|--6----------------------------------------------|
D|--7----------------------------------------------|
A|--7----------------------------------------------|
E|--5----------------------------------------------|
Другие песни: