StrokesIs This It Текст

0 Голосов
Song:Is This It?

Artist:The Strokes
Album:Is This It?


1.(00:13)
Lead Guitar Starts
Repeat 2x Repeat 2x
E -------------------|-------------------
B ----10--10--10--10-|---11--11--11--11--
G --10--10---9---7---|-10--10--9---7-----
D -------------------|-------------------
A -------------------|-------------------
E -------------------|-------------------

2.(00:33)
Lead Guitar
E -------------------------------------------
B -------------------------------------------
G --10---10---10---10---10---10---10---10----
D ----12---12---12---12---12---12---12---12--
A -------------------------------------------
E -------------------------------------------

E ---------------------------------------
B ---------------------------------------
G --9---9---9---9---9---9---9---9--------
D ---12--12--12--12--12--12--12--12------
A ---------------------------------------
E ---------------------------------------

Rythim Guitar
repeat 16x repeat16x
/ /
E --------------|-------------------
B --------------|-------------------
G --10-10-10-10-|-------------------
D --10-10-10-10-|--10-10-10-10------
A --8--8--8--8--|--10-10-10-10------
E --------------|--8--8--8--8-------

(01:13)-(01:38)
Both Guitars Play
E ---------------
B --10-10-10-10--
G --10-10-10-10--
D --10-10-10-10--
A --8--8--8--8---
E ---------------

Repeat the Whole Song Again
except when both guitars play.

By Johnn88
Другие песни: