StrokesHard To Explain Текст

0 Голосов
The Stokes

Hard To Explain
Is This It
Tabbed by: Dan Steadman
Slide=/
Mute=*

Chord Chart:
G:3x000x
Em:022xxx
A:x0222x
D:xx0232
C:x355xx
G*:35xxxx
Bass Note1:10xxxxx
Bass Note2:8xxxxx

Main Riff/Veres
Chords
G Em A
E|---------------------
A|---------------------
D|---------------------
G|-9------8------9-----
B|---------------------
e|---------------------
8x 8x 16x

G D
E|----------------------------------------
A|----------------------------------------
D|----------------3/5-----3/5----3/5----3-
G|-5-7-9------5/7-----5/7----5/7----5/7---
B|-------7-5------------------------------
e|----------------------------------------

C A
E|-----------------------
A|-----------------------
D|-----------------------
G|-0-2/4/2-2---0-2/4/2-2-
B|-----------------------
e|-----------------------

Bridge

G* BS1* G* BS2*
E|--------------------
A|--------------------
D|--------------------
G|--9*--9*----9*---9*-
B|--------------------
e|--------------------
all palm muted

Chorus
G
E|--------------
A|--------------
D|--------------
G|-----9--------
B|--------------
e|--------------

I'm sure this is correct I've seen them live twice, an the
SNL performance a million times.-Dan
Другие песни: