StratovariusPhoenix Текст, аккорды

0 Голосов
#----------------------------------PLEASE NOTE---------------------------------#

#This file is the author's own work and represents their interpretation of the #
#song. You may only use this file for private study, scholarship, or research. #
#------------------------------------------------------------------------------#

*****************************************************
* STRATOVARIUS - PHOENIX (From the album: INFINITE) *
*****************************************************
Music and Words By: Timo Tolkki

Transcribed By: Niclas Buss (nbuss@ironmaiden.com)
Added By Mikhailo
-----------------------------------------

Tune Down 1/2 step!

E----------------------------------------------------------------------------------|
B----------------------------------------------------------------------------------|
G----------------------------------------------------------------------------------|
D------9--9-----10--10--7-9-10------9--9-----7--7--------------9--9-----10--10-7-|
A--7-7------7-7------------------7-7------7-7------10-9-7--7-7------7-7-----------|
E----------------------------------------------------------------------------------|
pm..| pm..| pm...| pm..| pm..| pm...| pm..| pm..| pm.

x4 Verse 1
E----Two-Guitars.....................|---------------------------------------------|
B------------------------------------------|---------------------------------------|
G------7-5------5------------------------*|---------------------------------------|
D-9-10-9-7--9-7-7--9-7-5--9-7-54/5-----*|--7----5--------------------7---5----|
A-----------10-9---10-9-7-10-9-76/7~~----|--5----3----8---8----------5---3---8|
E--------------------------------------------------------6---6-----6-6-----------6|
..| pm..|
Bridge (1) Bridge (2)
E----------------------------------------------------------------------------------|
B---------|---------------------------|-----------|--------------------------------|
G---------|---------------------------|--Verse-2--|--------------------------------|
D---------|--5----3--------------5----|-----------|--5----3----3-------------------|
A----8---|--3----1-----3---3----3----|-----------|--3----1----1----3--------------|
E----6-----------------1---1---------------------------------------1---/5-6-5-3-5-|

E----------------------------------------------------------------------------------|
B----------------------------------------------------------------------------------|
G----------------------------------------------------------------------------------|
D----------------------------------------------------------------------------------|
A----------------------------------------------------------------------------------|
E-----5-6-5-3-5--5-6-5-3-5------5-6-5-3-5-----5-6-5-3-5--5-6-5-3-5-----/7-8-7-5|

E----------------------------------------------------------------------------------|
B----------------------------------------------------------------------------------|
G----------------------------------------------------------------------------------|
D----------------------------------------------------------------------------------|
A----------------------------------------------------------------------------------|
E-7------7-8-7-5-7--7-8-7-5-7------7-8-7-5-7--------7-8-7-5-7--7-8-7-5-7---7-8-|

Chorus
E----------------------------------------------------------------------------------|
B----------------|-----------------------------------------------------------------|
G----------------|-----------------------------------------------------------------|
D----------------|------------7----9----5----4------------4---/9-------------------|
A----------------|--2----7----5----7----3----1---2--------2---/7-7-7-7-7-7-7-7-7-7-|
E-7-5-7-8-7-5------0----5-------------------------5-3-2---------------------------|
pm......| pm.................

E----------------------------------------------------------------------------------|
B----------------------------------------------------------------------------------|
G----------------------------------------------------------------------------------|
D----------------------------------/7--------------------------/9------------------|
A-7-7--7--------------------------/5-5-5-5-5-5-5-5-5-5-5-5-5--/7-7-7-7-7-7-7-7-7-7|
E------5-5-5-5-5-5-5-5-5-5-5-5-5--------------------------------------------------|
....| pm......................| pm......................| pm................

E----------------------------------------------------------------------------------|
B----------------------------------------------------------------------------------|
G----------------------------------------------------------------------------------|
D--------5--------------------------4--------------------------------------------|
A-7-7-7--3-3-3-3-3-3-3-3-3-3-3-3-3--1-1-1-1-1-1-1-1-1-1-1-1-1-2-2-2-------------|
E----------------------------------------------------------------------5-5-53-3-3-|
......| pm......................| pm..........................................

Riff 1
E----------------------------------------------------------------------------------|
B------------------------------------|---------------------------------------------|
G------------------------------------|*--------------------------------------------|
D---------------------1-1-1-/4-4-4---|*------9--9-----10--10-/7-9-10------9--9-----|
A-------/2-2-2-/3-3-3----------------|---7-7------7-7-----------------7-7------7-7-|
E2-2-2----------------------------------------------------------------------------|
.................................| pm..| pm..| pm...| pm..| pm..|

x2 V
E-----------------------------------------Two-Guitars....................|---------|
B-------------------------------------------------------------------------------|--|
G------------------------------------------7-5-------5------------------------*|--|
D-7-7--------------9--9-----10--10-7-9-10-9-7--9-7--7-9-7-5--9-7-54/5~~----*|--|
A-----10-9-7--7-7------7-7---------------------10-9---10-9-7-10-9-76/7~~-----|--|
E----------------------------------------------------------------------------------|
pm....| pm..| pm..| pm...|

erse 3
E----------------------------------------------------------------------------------|
B-------------------------------------------------|----------|----------|----------|
G-------------------------------------------------|--Bridge--|--Chorus--|--Riff-1--|
D--7----5------------------7----5---------------|----------|----------|----------|
A--5----3----8----8-------5----3----8----8----|----------|----------|----------|
E-------------6----6----6-------------6----6-------------------------------------|
pm

E----------------------------------------------------------------------------------|
B----------------------------------------------------------------------------------|
G----------------------------------------------------------------------------------|
D----------------------------------------------------------------------------------|
A----------------------------------------------------------------------------------|
E--5-6-5-3-5----5-6-5-3-5--5-6-5-3-5-------5-6-5-3-5-----5-6-5-3-5--5-6-5-3-5--|

E----------------------------------------------------------------------------------|
B----------------------------------------------------------------------------------|
G----------------------------------------------------------------------------------|
D----------------------------------------------------------------------------------|
A---------------------------------------------------------------------------------/|
E-2-3-2-0-2---2-3-2-0-2--2-3-2-0-2------7-8-7-5-7-------7-8-7-5-7--7-8-7-5-7---|

x10 Guitar Solo
E------------------------------------------------------------------------7-/-19~~--|
B-------------------|-------------------------------------------------|------------|
G-------------------|*-----------------------------------------------*|------------|
D-------------------|*-----------------------------------------------*|------------|
A--2h3p2---2--------|-------------------------------------------------|------------|
E--------5---5-3-2------0-0-0---0-0-0----0-0---0-0-0---0-0-0-0-0-0-0---------------|
pm........| pm...........................................|

E-19-20--17-19--15-17--14-15--12-14-12-11------------------------------------------|
B-----------------------------------------13-12-10-13-12-10----12-10-------10------|
G-----------------------------------------------------------12-------12-11----12-11|
D----------------------------------------------------------------------------------|
A----------------------------------------------------------------------------------|
E----------------------------------------------------------------------------------|

E----------------------------------------------------------------------------------|
B----------------------------------------------------------------------------------|
G-9-12-11-9----11-9--------------------------------14-16-17-16-14----------------14|
D-----------14------14-10-9~~-------------14-16-17----------------17-16-14-16-17---|
A-------------------------------14-15-18------------------------------------------|
E----------------------------------------------------------------------------------|

E-------------------------------------------------15-17-19-17-15----------------15-|
B-------13-16-17-16-13----------------13-16-17/19----------------19-17-16-17-19----|
G-16-17----------------17-16-14-16-17----------------------------------------------|
D----------------------------------------------------------------------------------|
A----------------------------------------------------------------------------------|
E----------------------------------------------------------------------------------|

E-17-19-----------------------------------------------------------------15-17-19~~-|
B-------19-17-16-16-17-17-16-16-13----------------------------/16-17-19------------|
G----------------------------------17-16-14----------14-16-17----------------------|
D-------------------------------------------17-16-17-------------------------------|
A----------------------------------------------------------------------------------|
E----------------------------------------------------------------------------------|

x4
E---------------------------------------------------------------------------------|
B-----|-----------------|------------------------------------------------|---------|
G-----|--Keyboard-Solo--|*----------------------------------------------*|---4~~--|
D-----|-----------------|*----------------------------------------------*|---4~~--|
A-----|-----------------|------------------------------------------------|---2~~--|
E---------------------------0-0-0---0-0-0---0-0--0-0-0---0-0-0-0-0-0-0-------2~~--|
pm..........................................|

E----------------------------------------------------------------------------------|
B----------|-----------------------------------------------------------------------|
G--Chorus--|*----------------------------------------------------------------------|
D----------|*------9--9-----10--10-7-9-10------9--9-----7--7--------------9--9----|
A----------|---7-7------7-7-----------------7-7------7-7------10-9-7--7-7------7-7|
E----------------------------------------------------------------------------------|
pm..| pm..| pm...| pm..| pm..| pm....| pm..| pm..|

x4
E---------------Two-Guitars.....................|-------Two-Guitars................|
B-----------------------------------------------------|----------------------------|
G----------------7-5------5-------------------------*|--7-5------5----------------|
D-10--10-7-9-10-9-7--9-7-7--9-7-5--9-7-54/5~~----*|--9-7--9-7-7--9-7-5-9--7-54|
A---------------------10-9---10-9-7-10-9-76/7~~-----|------10-9---10-9-7-10-9-76|
E----------------------------------------------------------------------------------|
pm...|

E......................................|-------------------------------------------|
B----------------------------------------------------------------------------------|
G------7-5------5------------------------------------------------------------------|
D/5----9-7--9-7-7--9-7-5--9-7-54/5~~---------------------------------------------|
A/7~~------10-9---10-9-7-10-9-76/7~~------7--5--3-----/6---3---2--------2~~-----|
E----------------------------------------------------7----------------5---~~-----|

Trem.bar....|
E-----------------------------------------||
B-----~~-------------------~~----||
G---------------------------------|| end
D-----------------------------------------||
A----------------------------------------||
E----------------------------------------||

--------------------------------------------------------------------------------------

=======================
=TABLATURE EXPLANATION=
=======================

A.H. = Artificial Harmonic

= Natural Harmonic

pm..| = Palm mute

h = hammer on

p = pull off

/ = slide up

= slide down

~ = Vibrato

b() = Bend

x = Pick Slide

--------
--------
---12--- = Tremolo pick
----/---
----/---
----/---

---.---
--12--- = Staccato
-------
-------
-------

| |
| |
|* *| = repeat from * to *
|* *|
| |
Другие песни: