StratovariusGoodbye From Fright Night Текст

0 Голосов
Location: Season of Change - http://www.sci.fi/~jnevala/stratovarius/



SТRАТОVАRIUS
------------
Goodbye from Fright Night



Tabbed by Tuomas Kujala
email: tuomasku@japo.fi



INТRО
E---||---------------0-----------------0-----------------0--------------
B---||------3-----3-----3-----3-----3-----3-----3-----3-----3-----3-----
G---||*--------2-----------2-----2-----------2-----2-----------2--------
D---||*-----0-----------------------------------------------------------
A---||------------------------3-----------------2-----------------1-----
E---||------------------------------------------------------------------



E---------0--------|-----------------0-----------------0----------------
B------3-----3-----|--------3-----3-----3-----3-----3-----3-----3-------
G---2-----------2--|-----------2-----------2-----2-----------2-----2----
D------------------|--------0-------------------------------------------
A------------------|--------------------------3-----------------2-------
E------------------|----------------------------------------------------


Оnlу first time 2x
E------1--0--------|-------------------------|---||-----1-----3---------
B---3--------2--3--|-------------------------|---||---------------------
G------------------|--2----------------------|--*||---------------------
D------------------|-----3--2--0-----0--(0)--|--*||-----0-----2---------
A------------------|-------------------------|---||---------------------
E------------------|-------------------------|---||---------------------



E---5-----------6-----5-----3-----------3-----5-----6-----------5-------
B---------3-----------------------------------------------3-------------
G------2--------------------------0--------------------2----------------
D---3-----------3-----2--0-----2--------2-----3-----5-----------5-------
A---------------------------3-------------------------------------------
E-----------------------------------------------------------------------



E---3-----5-----------1-----3-----5--------------6-----5-----3----------
B---------------3-----------------------3-------------------------------
G------------2-----------------------2-----------------------------0----
D---3--2--0-----------0-----2-----3--------------3-----2--0-----2-------
A------------------------------------------------------------3----------
E-----------------------------------------------------------------------


Don't know other guitars here
E------1-----0--------1-----0--------------------|----------------------
B---------------------------------3-----2-----3--|----------------------
G------------------------------------------------|----------------------
D------------------------------------------------|----------------------
A------------------------------------------------|----------------------
E------------------------------------------------|----------------------

REPEAT INТRО


I'll finish the end part if I have enough time..

========================================================================
== Created with a demo version of BUCKET О' TAB ==
== tablature creation software for Windows ==
== For more info email gse@his.com ==
========================================================================
Другие песни: