StratovariusFriday Night Текст

0 Голосов
Location: Season of Change - http://www.sci.fi/~jnevala/stratovarius/


-STRATOVARIUS-

Fright Night (from Fright Night)
---------------------------------------------------
Music and Words by: Timo Tolkki and Tuomo Lassila

Transscribed By: Niclas Buss(Nbjbuss@hotmail.com)
email:Nbjbuss@hotmail.com
Tabbed:10.10-98

Intro

Backround noises,drums,synth, (57 sec.)

then

E------------------------------------|
B------------------------------------|
G------------------------------------|
D-10--9--7--5-3--2-------(2)----(2)--| x2
A-10--9--7--5-3--2-------(2)----(2)--|
E--8--7--5--3-1--0-------(0)----(0)--|


E-----------------------------------------------------------------------|
B-----------------------------------------------------------------------|
G-9-----------------9-----------------9-----------------9---------------|
D-9-----------------9-----------------9-----------------9---------------|
A-7-----------------7-----------------7-----------------7---------------|
E---0-0-0-0-0-0-0-0---0-0-0-0-0-0-0-0---0-0-0-0-0-0-0-0---0-0-0-0-0-0-0-|
pm..............| pm..............| pm..............| pm............|

E-----------------------------------------------------------------|
B-----------------------------------------------------------------|
G-9-------9-------9-------9-------9-------9-------9-------9-------|
D-9-------9-------9-------9-------9-------9-------9-------9-------|
A-7-------7-------7-------7-------7-------7-------7-------7-------|
E---0-0-0---0-0-0---0-0-0---0-0-0---0-0-0---0-0-0---0-0-0---0-0-0-|
pm....| pm....| pm....| pm....| pm....| pm....| pm....| pm....|

Verse Riff

E---------------------------------------------------------------------|
B---------------------------------------------------------------------|
G-12-11-9-------12-11-9-------5--7--9--7--9--11--9------12-11-9-7-11--| x2
D-12-11-9-------10-11-9-------5--7--9--7--9--11--9------12-11-9-7-11--|
A-10--9-777777--10--9-777777--3--5--7--5--7---9--777777-10--9-7-5--9--|
E---------------------------------------------------------------------|
pm....| pm...| pm...|

1st Verse
w/Verse riff (2 times)

Feel the night,
Conceal your fright,
It came from your right.

Look what you found
Lying on the ground
Shiny ball you donґt know anything at all

PreChorus

Riff 2

Gtr.1
E------------------------------------------------------------|
B-8----10----12------------10-------------8------------------|
G-9----11----12------------11-------------9------------------|
D------------------------------------------------------------|
A------------------------------------------------------------|
E------------------------------------------------------------|
Look through yourself thereґs a mystery full of you

E------------------------------------------------------------|
B-8----10----12------------10-------------8------------------|
G-9----11----12------------11-------------9------------------|
D------------------------------------------------------------|
A------------------------------------------------------------|
E------------------------------------------------------------|
Always condemn though you never understand
(end Riff 2)
E-------------------------------------------------------------------------------------------------------------|
B-8----10----12------------10-----------------8------------7-----------5-----------1--------4-------5------10-|
G-9----11----12------------11-----------------9------------7-----------5-----------2--------4-------5------11-|
D-------------------------------------------------------------------------------------------------------------|
A-------------------------------------------------------------------------------------------------------------|
E-------------------------------------------------------------------------------------------------------------|
Why you resist never knew how to fight You touch the light



It's Fright

Chorus

E------------------------------------------------|
B------------------------------------------------|
G-9------9-------5---9-------9------5-4----------|
D-9------9-------5---9-------9------5-4----------|
A-7------7-------3---7-------7------3-2----------|
E---0--0---0--0--------0--0----0--0--------------|
pm...| pm...| pm...| pm...|
Night It's fright

E----------------------------------------------|
B----------------------------------------------|
G-9------9------5---9------9------5-4----------|
D-9------9------5---9------9------5-4----------|
A-7------7------3---7------7------3-2----------|
E---0--0---0--0-------0--0---0--0--------------|
pm...| pm...| pm...| pm...|
Night

w/Verse Riff (2 times)

?Fill 1?

2nd Verse
w/verse riff (2 times)

In the dark
The shining spark
Follow this mystery ball

But donґt look back
Thereґs force of evil so black
Ready to take you away


PreChorus
w/Riff 2


Look through yourself thereґs a mystery full of you
Always condemn though you never understand
Why you resist never knew how to fight
You touch the light

It's fright


E------------------------------------------------|
B------------------------------------------------|
G-9------9-------5---9-------9------5-4----------|
D-9------9-------5---9-------9------5-4----------|
A-7------7-------3---7-------7------3-2----------|
E---0--0---0--0--------0--0----0--0--------------|
pm...| pm...| pm...| pm...|
Night It's fright

E----------------------------------------------|
B----------------------------------------------|
G-9------9------5---9------9------5-4----------|
D-9------9------5---9------9------5-4----------|
A-7------7------3---7------7------3-2----------|
E---0--0---0--0-------0--0---0--0--------------|
pm...| pm...| pm...| pm...|
Night

It's Fright Night

E--------------------------------------------------------------------|
B--------------------------------------------------------------------|
G-9-9--------------9-9--------------5-5--------------4-4-------------| x2
D-9-9--------------9-9--------------5-5--------------4-4-------------|
A-7-7--9-10-9-7-6--7-7--9-10-9-7-6--3-3--9-10-9-7-6--2-2--9-10-9-7-6-|
E--------------------------------------------------------------------|

E------------------------------------------------------------------------|
B------------------------------------------------------------------------|
G-9-9-11-12-11-9-8--9-9-11-12-11-9-8--5-5-11-12-11-9-8--4-4-11-12-11-9-8-| x2
D-9-9-11-12-11-9-8--9-9-11-12-11-9-8--5-5-11-12-11-9-8--4-4-11-12-11-9-8-|
A-7-7--9-10--9-7-6--7-7--9-10--9-7-6--3-3--9-10--9-7-6--2-2--9-10--9-7-6-|
E------------------------------------------------------------------------|

Guitar Solo

The rhythm guitar plays this under solo

E------------------------------------------------------------------------|
B------------------------------------------------------------------------|
G-9-9-11-12-11-9-8--9-9-11-12-11-9-8--5-5-11-12-11-9-8--4-4-11-12-11-9-8-|
D-9-9-11-12-11-9-8--9-9-11-12-11-9-8--5-5-11-12-11-9-8--4-4-11-12-11-9-8-|
A-7-7--9-10--9-7-6--7-7--9-10--9-7-6--3-3--9-10--9-7-6--2-2--9-10--9-7-6-|
E------------------------------------------------------------------------|

then

E------------------------------------------------------------------------|
B------------------------------------------------------------------------|
G-9-9-11-12-11-9-8--9-9-11-12-11-9-8--5-5-11-12-11-9-8--4-4-11-12-11-9-8-|
D-9-9-11-12-11-9-8--9-9-11-12-11-9-8--5-5-11-12-11-9-8--4-4-11-12-11-9-8-|
A-7-7--9-10--9-7-6--7-7--9-10--9-7-6--3-3--9-10--9-7-6--2-2--9-10--9-7-6-|
E------------------------------------------------------------------------|

E------------------------------------------------------------------------------------|
B------------------------------------------------------------------------------------|
G-9-9-11-12-11-9-8--9-9-11-12-11-9-8--5-5-11-12-11-9-8--4-4-11-12--------------------|
D-9-9-11-12-11-9-8--9-9-11-12-11-9-8--5-5-11-12-11-9-8--4-4-11-12--------------------|
A-7-7--9-10--9-7-6--7-7--9-10--9-7-6--3-3--9-10--9-7-6--2-2--9-10--12--14--18~~~~~~--|
E------------------------------------------------------------------------------------|


Slow part

E--------------0------------|
B-----------7--------7------|
G---------------------------| play this many times
D--------9--------9-----9---|
A----7----------------------|
E-0-------------------------|


Look around ,is this the end you see
Wrapped inside the pain and misery
Is it true ,when you say
That you'll never would give up
Memories fill my mind
I can see childhood again______.

(spoken: I can see childhood again)

oo oh___________.


Dist on

E-----------------|
B-----------------|
G-----------------| x4
D-14-12-11--9-4~~-|
A-12-10-9---7-2~~-|
E-----------------|

E----------------------------------|
B----------------------------------|
G------9-------9------9------9-|
D------9-------9------9------9-|
A------7-------7------7------7-|
E-0000----0000-----0000----0000----|
pm...| pm...| pm...| pm...|

Riff 1
E--------------------------------------------------------|
B--------------------------------------------------------|
G------9-------9------9------9------9-----10------7--|
D------9-------9------9------9------9-----10------7--|
A------7-------7------7------7------7------8------5--|
E-0000----0000-----0000----0000----0000---0000---0000----|
pm...| pm...| pm...| pm...| pm...| pm...| pm...|

w/Riff 1 (4 times)

Look I've found my old toys
They bring memories in my head
And now we are big boys
And the feeling is dead and it's gone

Riff 2
E---------------------------------------|
B---------------------------------------|
G-9-7-5-----------9------10------7------|
D-9-7-5-----------9------10------7------|
A-7-5-3-----------7-------8------5------|
E------------0000---0000----0000---0000-|
pm...| pm...| pm...| pm...|

w/Riff 2 (3 times)

Glimpse of the childhood appears to me so clear
Tales from Sherwood they fade away dissapear
Where am I going I can't see a solution

E-------------------------------------------------------------------------|
B-------------------------------------------------------------------------|
G-9-7-5-------------------------------------------------------------------|
D-9-7-5-------------------------------------------------------------------|
A-7-5-3-------------------------------------------222222222-2320232023202-|
E-------------------------------------------------------------------------|
pm......................|
Iґm here alone in the heart of the darkest night

E-----------------------------------|
B-----------------------------------|
G-----------------------------------|
D---------------2-1-----------------| x3
A-2320232023202-----3-2320232023202-|
E-----------------------------------|
pm............| pm............|

E---------------------------------------------------------|
B---------------------------------------------------------|
G---------------------------------------------------------|
D---------------2-1---------------------------------------|
A-2320232023202-----3--2--3--2--0--2--0-------------------|
E----------------------------------------3--2--3--2--0----|
pm............|

Chorus Riff (3 times)

Itґs Fright Night

Itґs Fright Night

Itґs Fright Night

Itґs Fright Night

Itґs Fright Night

Itґs Fright Night

It's Fright

end (Backwards words)

TABLATURE EXPLANATION
**********************

pm..| = Plam mute

p = Pull off

h = Hammer on

b() = bend

~~~~ = vibrato
Другие песни: