StratovariusDistant Skies Текст

0 Голосов
Distant skies

------------------
By Stratovarius


Tabbed by Sami Rikala
email=rikala@pp.qnet.fi
From album 4th Dimension

Intro
2x
|---------------------------------------------------------------------------------------------|
|---------------------------------------------------------------------------------------------|
|--3--2-----------------------3--2------------------------------------------------------------|
|--------5--3--1---0--1--0----------5--3--1---/5--3--1--0-------------------------------------|
|-----------------------------------------------------------3---------------------------------|
|---------------------------------------------------------------------------------------------|
| |
| P.m--> |
|---------------------------------------------------------------------------------------------|
|---------------------------------------------------------------------------------------------|
|----------------------------------------------5----------------------------------------------|
|----------------------------------------------3--3-----5----5--------------------------------|
|--5-5-5-5-5-5-5-5-5-5---------3-3-3-3-3-3-3-3----1--3--3----3--------------------------------|
|--3-3-3-3-3-3-3-3-3-3-3-5-6-5-1-1-1-1-1-1-1-1-------1----------------------------------------|


1st verse
2x
|-----------------|
Другие песни: