Stone Temple PilotsLounge Fly Текст

0 Голосов
#----------------------------------PLEASE NOTE---------------------------------#

#This file is the author's own work and represents their interpretation of the #
#song. You may only use this file for private study, scholarship, or research. #
#------------------------------------------------------------------------------#

From: Tom McCully [tmccully@netcom.ca]
Sent: Monday, December 29, 1997 7:01 PM

Song: Lounge Fly
Artist: Stone Temple Pilots

Verse

D5 F5 B?
E|-------------------|
B|-------------------|
G|--------1010-------| This is probably way off...
D|-12-12--1010--9----|
A|-12-12--8-8---8----|
E|-10-10--------7----|

Chorus
F5 G5 F5 G5 F5 G5 F5 G5 F5 G5 F5 G5
E|-----------------------------------------------------------------|
B|-----------------------------------------------------------------|
G|-----------------------------------------------------------------|
D|-3/5--5-5-5--3/5--5-5-5--3/5--5--3/5--5-5-5--3/5--5-5-5--3/5--5--|
A|-3/5--5-5-5--3/5--5-5-5--3/5--5--3/5--5-5-5--3/5--5-5-5--3/5--5--|
E|-1/3--3-3-3--1/3--3-3-3--1/3--3--1/3--3-3-3--1/3--3-3-3--1/3--3--|

A5 Bb5 A5 Bb5 A5 Bb5 A5 Bb5 A5 Bb5 A5 G#5
E|-----------------------------------------------------------------|
B|-----------------------------------------------------------------|
G|-----------------------------------------------------------------|
D|-7/8--8-8-8--7/8--8-8-8--7/8--8--7/8--8-8-8--7/8--8-8-8-8--7--6--|
A|-7/8--8-8-8--7/8--8-8-8--7/8--8--7/8--8-8-8--7/8--8-8-8-8--7--6--|
E|-5/6--6-6-6--5/6--6-6-6--5/6--6--5/6--6-6-6--5/6--6-6-6-6--5--4--|

F5 G5 F5 G5 F5 G5 F5 G5 F5 G5 F5 G5
E|-----------------------------------------------------------------|
B|-----------------------------------------------------------------|
G|-----------------------------------------------------------------|
D|-3/5--5-5-5--3/5--5-5-5--3/5--5--3/5--5-5-5--3/5--5-5-5--3/5--5--|
A|-3/5--5-5-5--3/5--5-5-5--3/5--5--3/5--5-5-5--3/5--5-5-5--3/5--5--|
E|-1/3--3-3-3--1/3--3-3-3--1/3--3--1/3--3-3-3--1/3--3-3-3--1/3--3--|

Bb5 C5
E|--------------------------------------------------------------------------|
B|--------------------------------------------------------------------------|
G|--------------------------------------------------------------------------|
D|-8-8-8-8--8-8-8-8--8-8-8-8--8-8-8-8--10101010-10101010-10101010-10101010--|
A|-8-8-8-8--8-8-8-8--8-8-8-8--8-8-8-8--10101010-10101010-10101010-10101010--|
E|-6-6-6-6--6-6-6-6--6-6-6-6--6-6-6-6--8-8-8-8--8-8-8-8--8-8-8-8--8-8-8-8---|

Bridge
D?
E|---------------------|
B|--3--3--3--3-3-3-----|
G|--1--2--4--2-1-2-----|
D|--0--0--0--0-0-0-----|
A|---------------------|
E|---------------------|


Lyrics

It's ok, it's ok, ok relieve me
Pins in me, pins in me, in me you kill me
The lounge fly, the lounge fly, the fly you bring me
I think I'm free but the dogs they won't release me
Don't have a nickel or a dollar but you feed me
My bottle's empty but you always refuel me
I feel I'm sinking but you won't let me drown me
I wanna f@(*, wanna f@(* but do you need me?

I can't give what I take away, and the other understands
She said she'd be my woman, she said she be my man
I can't live this way
Please refill my soul

(verse)

(chorus)

Said she'd be my woman...she said she'd be my woman, said she'd be my man

(solo 1) -Dean takes one of his quirky (awesome) trademark solos...

(chorus)

(solo 2) -Butthole Surfer Paul Leary pops in for a little solo in D pentatonic
minor
Другие песни: