Stone Temple PilotsDumb Love Текст

0 Голосов
Dumb Love - Stone Temple Pilots

Album: Shangri La Dee Da
tabbed by Bradley McCherry

Dropped D Tuning

Intro 2X
G----------------------------------|----------------------------------|
D----------------------------------|----------------------------------|
A----------------------------------|----------------------------------|
D-10b-8--6----8b-6--5----5b---3----|5b-3--0---0-5b-3--0---0-5b---3----|

Verse 8X
G------------------------|
D------------------------|
A------------------------|
D-00--00--00--0--0-6--6--|

Chorus 2X
G--------------------------|-------------------------|
D--------------------------|-------------------------|
A--------------------------|-------------------------|
D-3h5-5--35--35--353-6--6--|3h5-5--35--35------------|


Verse 4X
Chorus 2X
Intro 1X

Bridge 2X
G---------------------------------|--------------------------------|
D---------------------------------|--------------------------------|
A---------------------------------|--------------------------------|
D-6-5-3-0-1-0-6-5-3-0-1-0-1---3---|6-5-3-0-1-0-6-5-3-0-1-0-3---5---|


Solo (Verse Riff) 4X
Chorus 2X
Intro 1X
Bridge 4X

Outro
G------------------------|-------------------|
D------------------------|-------------------|
A------------------------|-------------------|
D-00--00--00--0--0-6--6--|00--00--00---------|


If You Don't Stand For Something... You'll Fall For Anything
Другие песни: