Stone SourOrchids Текст

0 Голосов
Song: Orchids

Artist: Stone Sour
Album: Stone Sour
Tabbed by: Christian / silent_warrior_@hotmail.com

Tuning: B F# B E G# C#

h - Hammer on
p - Pull off
PM - Palm mute


Intro (clean)
|-------------------|
|-------------------|
|-------------------| x4
|-----------3-3h4-3-|
|-5-5h6-5-----------|
|-------------------|


Intro/Verse - Repeat 3 times
|---------------| |--------|
|---------------| |--------|
|---------------| x4 |--------| x1
|-0--0-0--0-0-0-| |-1p0----|
|-0--0-0--0-0-0-| |------5-|
|-0--0-0--0-0-0-| |--------|


Pre-chorus
|-------------------|
|-------------------|
|-7-5-7--10---7-5-7-| x4
|-7-5-7--10---7-5-7-|
|-5-3-5---8---5-3-5-|
|-------------------|


Chorus - Repeat 2 times
|-------------| |-----|
|-------------| |-----|
|-------------| x3 |-----| x1
|-0-0-1-1-6-5-| |-3-3-|
|-0-0-1-1-6-5-| |-3-3-|
|-0-0-1-1-6-5-| |-3-3-|


Bridge 1
|-----------------------|
|-----------------------|
|-----------------------| x2
|-0--0-0-0-0-0--0-0-0-0-|
|-0--0-0-0-0-0--0-0-0-0-|
|-0--0-0-0-0-0--0-0-0-0-|
PM- - - - - - - - - -


Chorus - Repeat 2 times
|---------------| |--------|
|---------------| |--------|
|---------------| x4 |--------| x1
|-0--0-0--0-0-0-| |-1p0----|
|-0--0-0--0-0-0-| |------5-|
|-0--0-0--0-0-0-| |--------|


Pre-chorus
|-------------------|
|-------------------|
|-7-5-7--10---7-5-7-| x4
|-7-5-7--10---7-5-7-|
|-5-3-5---8---5-3-5-|
|-------------------|


Chorus - Repeat 2 times
|-------------| |-----|
|-------------| |-----|
|-------------| x3 |-----| x1
|-0-0-1-1-6-5-| |-3-3-|
|-0-0-1-1-6-5-| |-3-3-|
|-0-0-1-1-6-5-| |-3-3-|


Bridge 2
|-------------------|
|-------------------|
|-------------------| x4
|-----------3-3h4-3-|
|-5-5h6-5-----------|
|-------------------|


Repeat 4 times
|---------------| |--------|
|---------------| |--------|
|---------------| x4 |--------| x1
|-0--0-0--0-0-0-| |-1p0----|
|-0--0-0--0-0-0-| |------5-|
|-0--0-0--0-0-0-| |--------|


Pre-chorus
|-------------------|
|-------------------|
|-7-5-7--10---7-5-7-| x4
|-7-5-7--10---7-5-7-|
|-5-3-5---8---5-3-5-|
|-------------------|


Chorus - Repeat 2 times
|-------------| |-----|
|-------------| |-----|
|-------------| x3 |-----| x1
|-0-0-1-1-6-5-| |-3-3-|
|-0-0-1-1-6-5-| |-3-3-|
|-0-0-1-1-6-5-| |-3-3-|


Outro
|-----------------------|
|-----------------------|
|-----------------------| x8
|-0--0-0-0-0-0--0-0-0-0-|
|-0--0-0-0-0-0--0-0-0-0-|
|-0--0-0-0-0-0--0-0-0-0-|
PM- - - - - - - - - -
Другие песни: