Stone SourInhale Текст

0 Голосов
Stone Sour - Inhale

Album: Stone Sour
Tuning: B F# B E Ab C#
Tabbed By: Dean К. (projectwyze13@hotmail.com)

Intro/Chous
C#|----------
Ab|----------
E |----------
B |0-7-6----3
F#|------7---
B |----------

Riff 2
C#|---------
Ab|---------
E |---------
B |0-7-6-2-3
F#|0-7-6-2-3
B |0-7-6-2-3

Verse
C#|-------------------------------------------
Ab|-------------------------------------------
E |7--7-7-7-3-3-3----7----7-7-7-3-3-3-5-5-7---
B |7--7-7--------7-7-7----7-7-7-----------7-(5)
F#|5--5-5------------5----5-5-5-----------5-(5) () Only Second Time
B |-----------------------------------------(5)
P.M.

END RIFF
C#|----------------------
Ab|----------------------
E |----------------------
B |9-9-9-9--11-11-11-11-5
F#|9-9-9-9--11-11-11-11-5
B |9-9-9-9--11-11-11-11-5


SONG ORDER
INTRO/CHORUS X 6
RIFF 2 X 4
VERSE X 2
INTRO/CHORUS X 8
VERSE X 2
INTRO/CHORUS X 8
END RIFF X 6
INTRO/CHORUS X 16
RIFF 2 X 4
Другие песни: