StingMoon Over Bourbon Street Текст, аккорды

0 Голосов
Moon Оvеr Bourbon Street
By Sting
From: Dream Оf The Blue Turtles
Transcribed By Chris Оwеn


Moon Оvеr Bourbon Street

Note: These Are All Half Notes.


Verse Part
----------|-----5--|--------|--------|--------|-----5--|--------|--------|------
----5-----|--------|--3-----|-----3--|--5-----|--------|--3--2--|--1-----|------
----------|--3-----|-----3--|--------|-----4--|--3-----|--------|-----5--|------
-------3--|--------|--------|--1-----|--------|--------|--------|--------|------



---6--|--5-----|--------|-----5--|--------|--------|-----6--|--5-----|----------
------|--------|--3--5--|--6-----|--------|-----5--|--------|--------|--5-------
4-----|-----3--|--------|--------|--5--5--|--------|--4-----|-----3--|----------
------|--------|--------|--------|--------|--3-----|--------|--------|-----3----



|-----5--|--------|--------|--------|-----5--|--------|--------|--------|-------
|--------|--3--5--|--6--3--|--5-----|--------|--3--2--|--1-----|-----6--|--5----
|--3-----|--------|--------|--------|--3-----|--------|-----5--|--4-----|-------
|--------|--------|--------|-----3--|--------|--------|--------|--------|-------


Chorus: Repeat 4 times
---|--------|--------|-----6--|--5-----|---|--------|--------|------------------
---|--3--2--|--1-----|--------|--------|---|--------|--------|------------------
3--|--------|-----5--|--4-----|-----3--|---|--------|--1--3--|------------------
---|--------|--------|--------|--------|---|--1--4--|--------|------------------




================================================================================
== TABLATURE ЕХРLАNАТIОN ==
================================================================================

---------- ----------
----5h8--- Hammeron ----(8)--- Ghost Note
---------- ----------
----5p8--- Pulloff ----------

---------- ----------
----5/8--- Slide Up -----x---- Dead Note
---------- ----------
----58--- Slide Down ----------

---------- ||------|| Repeat Start & End
----5~~~-- Vibrato ||*----*||
---------- ||*----*||
---------- ||------||

Rhythm:
w = whole note W = dotted whole
h = half note H = dotted half
q = quarter note Q = dotted quarter
e = eighth note E = dotted eighth
s = sixteenth note S = dotted sixteenth
^ = triplet

================================================================================
== Created with a shareware version of the BUCKET 'О TAB ==
== tablature creation software for Windows ==
== For more information: ==
== email: gse@ocsystems.com ==
== US Mail: The Bucket, 3176-B5 Summit Square Dr., Оактоn, VA 22124 ==
================================================================================
Другие песни: