Static XWisconsin Death Trip Текст

0 Голосов
(time 00:15) 12 times
|------|------------------
|------|------------------
|------|------------------
|------|------------------
|--5-0-|--5-0-5-0-5-0----

little bass part
|------------------------------------------------------------
|------------------------------------------------------------
|------------------------------------------------------------
|-0-0--0-0-0-0-0-0---0-0-0-0-0-0---0-0-0-0-0-0---0-0-0-0-0-0-
|------------------------------------------------------------

(time 00:45) back to main part do 12 times

chorus #1
4 times
|-------------------------------
|-------------------------------
|-------------------------------
|-------------------------------
|--6-5--6-5-6-5-6-5--6-5-6-5----

(time 1:22) back to main part 12 times

chorus #2
2 times 2 times
|-------------------------------|-----------------------------
|-------------------------------|-----------------------------
|-------------------------------|-----------------------------
|-------------------------------|-----------------------------
|--6-5--6-5-6-5-6-5--6-5-6-5----|--2-1--2-1-2-1-2-1--2-1-2-1--

interlude and end (1:54) do 15 times
|-----|----------------------
|-----|----------------------
|-----|----------------------
|-----|----------------------
|-12-|0-0-0-0-0-0-0-0-------

then chorus #1
then main part
then the ending
Другие песни: