Static XStem Текст

0 Голосов
Transcribed by Obscured@san.rr.com
Tuning: C F A# D# G C

INTRO
Guitar 1 x4
|------------------------------------------------------|
|------------------------------------------------------|
|-------9---9---------9---9--------9---9---------9-----|
|------------------------------------------------------|
|-------7---7---------7---7--------7---7---------7-----|
|-0--0---------0-0-0---------0--0---------0-0-0--------|
|Guitar 2 x4
|------------------------------------------------------|
|------------------------------------------------------|
|-------12--12--------12--12-------12--12--------12----|
|------------------------------------------------------|
|-------10--10--------10--10-------10--10--------10----|
|-0--0---------0-0-0---------0--0---------0-0-0--------|

VERSE: x4
|------------------------------------------------|
|------------------------------------------------|
|------------------------------------------------|
|-5---5-5---5-5---5-5---5-5---5-5---5-5---5-5----|
|-5---5-5---5-5---5-5---5-5---5-5---5-5---5-5----|
|-3---3-3---3-3---3-3---3-3---3-3---3-3---3-3----|


CHORUS
Guitar 1 x2
|------------------------------------------------------|
|------------------------------------------------------|
|-------9---9---------9---9--------9---9---------9-----|
|------------------------------------------------------|
|-------7---7---------7---7--------7---7---------7-----|
|-0--0---------0-0-0---------0--0---------0-0-0--------|
|Guitar 2 x2
|------------------------------------------------------|
|------------------------------------------------------|
|-------12--12--------12--12-------12--12--------12----|
|------------------------------------------------------|
|-------10--10--------10--10-------10--10--------10----|
|-0--0---------0-0-0---------0--0---------0-0-0--------|


VERSE2: x2
|------------------------------------------------|
|------------------------------------------------|
|------------------------------------------------|
|-5---5-5---5-5---5-5---5-5---5-5---5-5---5-5----|
|-5---5-5---5-5---5-5---5-5---5-5---5-5---5-5----|
|-3---3-3---3-3---3-3---3-3---3-3---3-3---3-3----|


INTERLUDE: - Synth/Sound effects

CHORUS 2
Guitar 1 x2
|------------------------------------------------------|
|------------------------------------------------------|
|-------9---9---------9---9--------9---9---------9-----|
|------------------------------------------------------|
|-------7---7---------7---7--------7---7---------7-----|
|-0--0---------0-0-0---------0--0---------0-0-0--------|
|Guitar 2 x2
|------------------------------------------------------|
|------------------------------------------------------|
|-------12--12--------12--12-------12--12--------12----|
|------------------------------------------------------|
|-------10--10--------10--10-------10--10--------10----|
|-0--0---------0-0-0---------0--0---------0-0-0--------|


VERSE3: x2
|------------------------------------------------|
|------------------------------------------------|
|------------------------------------------------|
|-5---5-5---5-5---5-5---5-5---5-5---5-5---5-5----|
|-5---5-5---5-5---5-5---5-5---5-5---5-5---5-5----|
|-3---3-3---3-3---3-3---3-3---3-3---3-3---3-3----|


OUTRO - Synth/Sound effects

Hit this just once at the start of the outro
|----------|
|----------|
|----------|
|-2--------|
|-2--------|
|-0--------|
Другие песни: