Static XOstegolation Текст

0 Голосов
Static-X

Ostegolation
Wisconsin Death Trip


Tuning: C F A# D# G C


INTRO
x2
|---------------------|
|---------------------|
|---------------------|
|-2----2----2----2----|
|-2----2----2----2----|
|-0----0----0----0----|

(*=Harmonic) x4
|-----------------------------------------|
|-----------------------------------------|
|-----------------------------------------|
|-2---*3.1*-*3.1*-*3.1*-*3.1*-*3.1*-*3.1*-|
|-2---------------------------------------|
|-0---------------------------------------|

x16
|-----------|
|-----------|
|-----------|
|-2--2--2-2-|
|-2--2--2-2-|
|-0--0--0-0-|
. . ...


VERSE
x16
|-----------|
|-----------|
|-----------|
|-2--2--2-2-|
|-2--2--2-2-|
|-0--0--0-0-|
. . ...


PRECHORUS

(*=Harmonic) x4
|-----------------------------------------|
|-----------------------------------------|
|-----------------------------------------|
|-2---*3.1*-*3.1*-*3.1*-*3.1*-*3.1*-*3.1*-|
|-2---------------------------------------|
|-0---------------------------------------|


VERSE 2
x16
|-----------|
|-----------|
|-----------|
|-2--2--2-2-|
|-2--2--2-2-|
|-0--0--0-0-|
. . ...


PRECHORUS 2

|------|
|------|
|------|
|-2----|
|-2----|
|-0----|

(*=Harmonic) x4
|-----------------------------------------|
|-----------------------------------------|
|-----------------------------------------|
|-2---*3.1*-*3.1*-*3.1*-*3.1*-*3.1*-*3.1*-|
|-2---------------------------------------|
|-0---------------------------------------|


VERSE 3 - Bass only


CHORUS
x16
|-----------|
|-----------|
|-7--7------|
|-7--7--7-7-|
|-5--5--0-0-|
|-----------|


VERSE 4

(*=Harmonic) x4
|-----------------------------------------|
|-----------------------------------------|
|-----------------------------------------|
|-2---*3.1*-*3.1*-*3.1*-*3.1*-*3.1*-*3.1*-|
|-2---------------------------------------|
|-0---------------------------------------|


CHORUS 2/OUTRO
x48
|-----------|
|-----------|
|-7--7------|
|-7--7--7-7-|
|-5--5--0-0-|
|-----------|
Другие песни: