Stabbing WestwardTorn Apart Текст

0 Голосов
Intro

|------------3X--------------|-------------1x-------------|
G|----------------------------|----------------------------|
D|----------------------------|----------------------------|
A|4-4-5-5----3-4-3--333-------|--3-3-3---2-2-2-------------|
E|----------------------------|--------3-------------------|

|------------2X--------------|-------------1x-------------|
G|----------------------------|----------------------------|
D|----------------------------|----------------------------|
A|4-4-5-5----3-4-3--333-------|--3-3-3---2-2-2-------------|
E|----------------------------|--------3-------------------|

Verse
|----------------------8X--------------------------------|
G|--------------------------------------------------------|
D|-----------------3------------------3------4------3-----|
A|3-3-3-3--4-4-4-4---4-4-4-4--3-3-3-3---------------------|
E|--------------------------------------------------------|

Chorus
|------------8X--------------|-------------1x-------------|
G|----------------------------|----------------------------|
D|----------------------------|----------------------------|
A|4-4-5-5----3-4-3--333-------|----0---------0--------0----|
E|----------------------------|----------------------------|


|------------3X--------------|-------------1x-------------|
G|----------------------------|----------------------------|
D|----------------------------|----------------------------|
A|4-4-5-5----3-4-3--333-------|--3-3-3---2-2-2-------------|
E|----------------------------|--------3-------------------|

Verse 1x

Chorus

Solo
G|--------------------------------------------------------|
D|--------------------------------------------------------|
A|--232---323---333---222---333---222---333---123---------|
E|------0-----0-----0-----0-----0-----0-----0-----0---0---|

Chorus 2x
Другие песни: