Stabbing WestwardLies Текст

0 Голосов
Lies by Stabbing Westward


Tabbed by Dave Bloom

mizar_alcor@yahoo.com


Drop D Tuning...

D
A
D
G
B
e

Intro, and played at other parts of the song...

The 4's are harmonics over the 4th fret on those strings...
if you don't know how to play harmonics, email me and i will
tell you

-4-4-4-4-4-4------------------|
-4-4-4-4-4-4------------------|
-4-4-4-4-4-4--7---------------|
-4-4-4-4-4-4--7---------------|
--------------5---------------|
--------------0---------------|

I think this is bass, but could also be guitar...

--------------------------------|
--------------------------------|
--------------------------------|
--------------------------------|
-5-5-5-5-5-6-5-5-8-5-5-6-5-3-6--|
--------------------------------|


Chorus...

-------------------------------------------------------------------------|
-------------------------------------------------------------------------|
-7-7-7-7-7-7-5-5-5-5-5-5-------------------------------5-5-5-------5-5-5-|
-7-7-7-7-7-7-5-5-5-5-5-5-5-5-5-5-5-5-3-3-3-3-3-3-5-5-5-------5-5-5-------|
-5-5-5-5-5-5-3-3-3-3-3-3-5-5-5-5-5-5-3-3-3-3-3-3-------------------------|
-0-0-0-0-0-0-------------5-5-5-5-5-5-3-3-3-3-3-3-------------------------|

-------------------------------------------------------------------------|
-------------------------------------------------------------------------|
-------------------------------------------------------5-5-5-------5-5-5-|
-7-7-7-7-7-7-5-5-5-5-5-5-6-6-6-6-6-6-6-6-6-6-6-6-5-5-5-------5-5-5-------|
-5-5-5-5-5-5-3-3-3-3-3-3-6-6-6-6-6-6-6-6-6-6-6-6-------------------------|
-0-0-0-0-0-0-------------6-6-6-6-6-6-6-6-6-6-6-6-------------------------|
The Words...

Your soul a pit of stone,

The depths I wish I could have known

Dangerous, black and full of spite,

Thoughts of you fill my night

But now we lay naked on the floor

I'm lost, I'm drowning in your soul

I was searching for some answer in your eyes

I find malicious laughter and a love that has died

You are haunting my reality

Your lies are the only truth that I believe

You are haunting my reality

Now everytime I think about you I die


Hatred runs through me marrow deep

I long to tear your eyes out in your sleep

This passion can lead to evil crimes

Do I kill you or do I choose to die?

Acid burn etched in my brain

Someone dies before I go insane

I was searching for some answer in your eyes

I find malicious laughter and a love that has died


You are haunting my reality

Your lies are the only truth that I believe

You are haunting my reality

Now everytime I think about you I die

Lies


Soon now you'll be gone

I wish to God I could've known

I love you I hate you every night

This longing for your soul has got me scared

But now we lay naked on the floor

I'm lost, i'm drowning in your soul

I was searching for some answer in your eyes

I find malicious laughter, hate and lies ***ing lies


You are haunting my reality

Your lies are the only truth that I believe

You are haunting my reality

Now everytime I think about you I die (repeat)

Lies
Другие песни: