Sr-71Right Now Текст

0 Голосов
SR-71
Right Now


Intro
CUT TIME H. E E E E E E E E E E E E E E E E E E
G|---------------------------|--------|-----------------|-----------------|
D|---------------------------|------1/|-6-6-6-6-6-6-6-6-|-6-6-6-6-6-6-6-6-|
A|--Rest for 5 fast measures-|-R--R---|-----------------|-----------------|
D|---------------------------|--------|-----------------|-----------------|



Q E E E E E E E E E E E E E E Q E E E E E E E E E E E E E E
G|----------------|-----------------|----------------|-----------------|
D|----------------|-----------------|----------------|-----------------|
A|-6--6-6-6-6-6-6-|-6-6-6-6-6-6-6-6-|-3--3-3-3-3-3-3-|-3-3-3-3-3-3-3-3-|
D|----------------|-----------------|----------------|-----------------|



Q E E E E E E E E E E E E E E Q E E E E E E E E E E E E Q
G|----------------|-----------------|----------------|----------------|
D|----------------|-----------------|----------------|----------------|
A|-1--1-1-1-1-1-1-|-1-1-1-1-1-1-1-1-|----------------|-------------5--|
D|----------------|-----------------|-6--6-6-6-6-6-6-|-6-6-6-6-6-6----|



Q E E E E E E E E E E E E E E Q E E E E E E E E E E E E E E
G|----------------|-----------------|----------------|-----------------|
D|----------------|-----------------|----------------|-----------------|
A|-6--6-6-6-6-6-6-|-6-6-6-6-6-6-6-6-|-3--3-3-3-3-3-3-|-3-3-3-3-3-3-3-3-|
D|----------------|-----------------|----------------|-----------------|



Q E E E E E E E E E E E E E E Q E E E E E E E E E E E E Q
G|----------------|-----------------|----------------|----------------|
D|----------------|-----------------|----------------|----------------|
A|-1--1-1-1-1-1-1-|-1-1-1-1-1-1-1-1-|----------------|-------------5--|
D|----------------|-----------------|-6--6-6-6-6-6-6-|-6-6-6-6-6-6----|



Q E E E E E E E E E E E E Q Q E E E E E E E E E E E E Q
G|----------------|----------------|----------------|----------------|
D|----------------|----------------|----------------|----------------|
A|-6--6-6-6-6-6-6-|-6-6-6-6-6-6-2--|-3--3-3-3-3-3-3-|-3-3-3-3-3-3-0--|
D|----------------|----------------|----------------|----------------|



Q E E E E E E E E E E E E Q Q E E E E E E E E E E E E E E
G|----------------|----------------|----------------|-----------------|
D|----------------|----------------|----------------|-----------------|
A|-1--1-1-1-1-1-1-|-1-1-1-1-1-1----|----------------|-----------------|
D|----------------|-------------5--|-6--6-6-6-6-6-6-|-6-6-6-6-6-6-6-6-|



Q Q Q Q Q Q Q Q Q Q Q Q Q Q Q Q
G|-------------|-------------|-------------|-------------|
D|-------------|-------------|-------------|-------------|
A|-------------|-1--1--1--1--|-3--3--3--3--|-------------|
D|-1--1--1--1--|-------------|-------------|-6--6--6--6--|



Q Q Q Q Q Q Q Q Q Q Q Q Q Q Q Q
G|-------------|-------------|-------------|-------------|
D|-------------|-------------|-------------|-------------|
A|-------------|-1--1--1--1--|-3--3--3--3--|-------------|
D|-1--1--1--1--|-------------|-------------|-6--6--6--6--|



Q Q Q Q Q Q Q Q Q Q Q Q Q Q Q Q
G|-------------|-------------|-------------|-------------|
D|-------------|-------------|-------------|-------------|
A|-------------|-1--1--1--1--|-3--3--3--3--|-------------|
D|-1--1--1--1--|-------------|-------------|-6--6--6--6--|


-- 3 -- -- 3 --
Q Q Q Q Q Q
G|----------|-0-----0--|-------------|-------------|
D|-------1--|----3-----|-6--6--6--6--|-6--6--6--6--|
A|----3-----|----------|-------------|-------------|
D|-3--------|----------|-------------|-------------|




Q E E E E E E E E E E E E E E Q E E E E E E E E E E E E E E
G|----------------|-----------------|----------------|-----------------|
D|----------------|-----------------|----------------|-----------------|
A|-6--6-6-6-6-6-6-|-6-6-6-6-6-6-6-6-|-3--3-3-3-3-3-3-|-3-3-3-3-3-3-3-3-|
D|----------------|-----------------|----------------|-----------------|



Q E E E E E E E E E E E E E E Q E E E E E E E E E E E E E E
G|----------------|-----------------|----------------|-----------------|
D|----------------|-----------------|----------------|-----------------|
A|-1--1-1-1-1-1-1-|-1-1-1-1-1-1-1-1-|----------------|-----------------|
D|----------------|-----------------|-6--6-6-6-6-6-6-|-6-6-6-6-6-6-6-6-|



Q H. H. E Q E E E E E E E E E E E E E E
G|------|------|----------------|-----------------|
D|------|------|----------------|-----------------|
A|-6-R--|-R--6-|-3--3-3-3-3-3-3-|-3-3-3-3-3-3-3-3-|
D|------|------|----------------|-----------------|




Q E E E E E E E E E E E E E E Q E E E E E E E E E E E E Q
G|----------------|-----------------|----------------|----------------|
D|----------------|-----------------|----------------|----------------|
A|-1--1-1-1-1-1-1-|-1-1-1-1-1-1-1-1-|----------------|-------------5--|
D|----------------|-----------------|-6--6-6-6-6-6-6-|-6-6-6-6-6-6----|




Q E E E E E E E E E E E E Q Q E E E E E E E E E E E E Q
G|----------------|----------------|----------------|----------------|
D|----------------|----------------|----------------|----------------|
A|-6--6-6-6-6-6-6-|-6-6-6-6-6-6-2--|-3--3-3-3-3-3-3-|-3-3-3-3-3-3-0--|
D|----------------|----------------|----------------|----------------|



Q E E E E E E E E E E E E Q Q E E E E E E E E E E E E E E
G|----------------|----------------|----------------|-----------------|
D|----------------|----------------|----------------|-----------------|
A|-1--1-1-1-1-1-1-|-1-1-1-1-1-1----|----------------|-----------------|
D|----------------|-------------5--|-6--6-6-6-6-6-6-|-6-6-6-6-6-6-6-6-|


-- 3 -- -- 3 --
Q Q Q Q Q Q W H H
G|----------|-0-----0--|--4--|-(4)---|
D|-------1--|----3-----|-----|-------|
A|----3-----|----------|-----|-------|
D|-3--------|----------|-----|-----7/|




Q Q Q Q Q Q Q Q Q Q Q Q Q Q Q Q
G|-------------|-------------|-------------|-------------|
D|-------------|-------------|-------------|-------------|
A|-------------|-1--1--1--1--|-3--3--3--3--|-------------|
D|-1--1--1--1--|-------------|-------------|-6--6--6--6--|



Q Q Q Q Q Q Q Q Q Q Q Q Q Q Q Q
G|-------------|-------------|-------------|-------------|
D|-------------|-------------|-------------|-------------|
A|-------------|-1--1--1--1--|-3--3--3--3--|-------------|
D|-1--1--1--1--|-------------|-------------|-6--8--6--5--|



Q Q Q Q Q Q Q Q Q Q Q Q Q Q Q Q
G|-------------|-------------|-------------|-------------|
D|-------------|-------------|-------------|-------------|
A|-------------|-1--1--1--1--|-3--3--3--3--|-------------|
D|-1--1--1--1--|-------------|-------------|-6--5--3--1--|




-- 3 -- -- 3 --
Q Q Q Q Q Q H H H H
G|----------|-0-----0--|-------|------|
D|-------1--|----3-----|-6--8--|-6----|
A|----3-----|----------|-------|----6/|
D|-3--------|----------|-------|------|




Q Q Q Q Q Q Q Q Q Q Q Q Q Q Q Q
G|-------------|-------------|-------------|-------------|
D|-------------|-------------|-------------|-------------|
A|-------------|-1--1--1--1--|-3--3--3--3--|----------5--|
D|-1--1--1--1--|-------------|-------------|-6--6--6-----|


-- 3 --
Q Q Q Q Q Q Q Q Q Q Q Q Q Q Q
G|-------------|-------------|-------------|----------|
D|-------------|-------------|-------------|----------|
A|-6--6--6--6--|-1--1--1--1--|-3--3--3--3--|-6--------|
D|-------------|-------------|-------------|----5--6--|



Q Q Q Q Q Q Q Q Q Q Q Q Q Q Q Q
G|-------------|-------------|-------------|-------------|
D|-------------|-------------|-------------|-------------|
A|-------------|-1--1--1--1--|-3--3--3--3--|-------------|
D|-1--1--1--1--|-------------|-------------|-6--6--6--6--|




Q Q Q Q Q Q Q Q Q Q Q Q Q Q Q Q
G|-------------|-------------|-------------|-------------|
D|-------------|-------------|-------------|-------------|
A|-------------|-1--1--1--1--|-3--3--3--3--|-------------|
D|-1--1--1--1--|-------------|-------------|-6--6--6--6--|



W W W W E E E E E E E E E E E E E E E E
G|-----|-----|-----|-----|-----------------|-----------------|
D|-----|-----|-----|-----|-6-6-6-6-6-6-6-6-|-6-6-6-6-8-8-8-8-|
A|--6--|--1--|-----|-----|-----------------|-----------------|
D|-----|-----|--3--|--6--|-----------------|-----------------|




Q Q Q Q Q Q Q Q Q Q Q Q Q Q Q Q
G|-------------|-------------|-------------|-------------|
D|-------------|-------------|-------------|-------------|
A|-------------|-1--1--1--1--|-3--3--3--3--|-------------|
D|-1--1--1--1--|-------------|-------------|-6--6--6--6--|



Q Q Q Q Q Q Q Q Q Q Q Q Q Q Q Q
G|-------------|-------------|-------------|-------------|
D|-------------|-------------|-------------|-------------|
A|-------------|-1--1--1--1--|-3--3--3--3--|----------6--|
D|-1--1--1--1--|-------------|-------------|-6--8--10----|



Q Q Q Q Q Q Q Q Q Q Q Q Q Q Q Q
G|-------------|-------------|-------------|-------------|
D|-------------|-------------|-------------|-------------|
A|-------------|-1--1--1--1--|-3--3--3--3--|-------------|
D|-1--1--1--1--|-------------|-------------|-6--6--6--1--|




G|-------------|-------------|-------------|-------------|
D|-------------|-------------|-------------|-------------|
A|-------------|-------------|-------------|-------------|
D|-3--3--3--3--|-3--3--3--3--|-6--6--6--6--|-6--5--6--8--|




Q E E E E E E E E E E E E E E Q E E E E E E E E E E E E E E
G|----------------|-----------------|----------------|-----------------|
D|----------------|-----------------|----------------|-----------------|
A|-6--6-6-6-6-6-6-|-6-6-6-6-6-6-6-6-|-3--3-3-3-3-3-3-|-3-3-3-3-3-3-3-3-|
D|----------------|-----------------|----------------|-----------------|



Q E E E E E E E E E E E E E E Q E E E E E E E E E E E E Q
G|----------------|-----------------|----------------|----------------|
D|----------------|-----------------|----------------|----------------|
A|-1--1-1-1-1-1-1-|-1-1-1-1-1-1-1-1-|----------------|-------------5--|
D|----------------|-----------------|-6--6-6-6-6-6-6-|-6-6-6-6-6-6----|




Q E E E E E E E E E E E E E E Q E E E E E E E E E E E E E E
G|----------------|-----------------|----------------|-----------------|
D|----------------|-----------------|----------------|-----------------|
A|-6--6-6-6-6-6-6-|-6-6-6-6-6-6-6-6-|-3--3-3-3-3-3-3-|-3-3-3-3-3-3-3-3-|
D|----------------|-----------------|----------------|-----------------|



Q E E E E E E E E E E E E E E H H W
G|----------------|-----------------|| -------|-----|
D|----------------|-----------------||4 -------|--1--|
A|-1--1-1-1-1-1-1-|-1-1-1-1-1-1-1-1-||4 -2--4--|-----|
D|----------------|-----------------|| -------|-----|
Другие песни: