SoundgardenOutshined Текст

0 Голосов
Tabbed by:NightWalker

Email:low_labido1@yahoo.com

sorry about not having the leads on here im not a lead guitarist
so i cant make out where the lead goes but here's the rythem part
It is at least 95% correct if there is any mistakes e-mail me and i will
correct them.

Tuning:Drop-D

Intro/verse:
e|-------------------------|
B|-------------------------| (guitar 2)
G|---------------5---------| g|---5b-|
D|-0-0-3-5-3-0-3-5-6-5-3-5-|before d|-5b---|back to verse.
A|-0-0-3-5-3-0-3-3-6-5-3-5-|verse
D|-0-0-3-5-3-0-3---6-5-3-5-|
play 3x guitar 1 plays
this through
verse.

breakdown before chorus:
e|----------------------|-79-9---|
B|---7-7--9---7-7-9---7-|-xx-x---|
G|---7-7--9---7-7-9-7-7-|-57-7---|
D|-0-x-x--x---x-x-x-7-x-|-------0-|
A|-0-5-5--7---5-5-7-7-5-|-------0-|
D|-0--------------------|-------0-|
play 3x then this.

Chorus:
e|-------------------------------------|-------------------------------------|
B|-------------------------------------|-------------------------------------|
G|-------------------------------------|-------------------------------------|
D|-7-5-0-3-5-0-3-5-0-3-0h3-6-6-6-5-3-0-|-10-10-------------------------------|
A|-7-5-0-3-5-0-3-5-0-3-0h3-6-6-6-5-3-0-|-10-10-------------------------------|
E|-7-5-0-3-5-0-3-5-0-3-0h3-6-6-6-5-3-0-|-10-10-------------------------------|
listen for rythem



| / slide up
| slide down
| h hammer-on
| p pull-off
| ~ vibrato
| + harmonic
| x Mute note
Другие песни: