Sonic YouthTokyo Eye Текст

0 Голосов
SONIC YOUTH
TOKYO EYE

Bass tab by Chris Lawrence

Verse:

G-------------
D-------------
A--0-------0--
E-------------

Then:

G----------
D----------
A---3------
E----------

When the guitars go distorted, play:

G----------------- -----------------------
D----------------- -----------------------
A---0------------- then --0----------------3-3-
E----------------- ---------------3-3-----

Then:

G-------------------- ------------------------
D-----------2--0----- --------2--0------------
A---0---------------- ---0----------------3-3-
E-------------------- ----------------3-3-----

At the end, I'm not sure if she's playing anything. Like I said in the
Screaming skull bass tab, the bass is really inaudible on Jet Set.

Chris
Другие песни: