Sonic YouthShoot Текст, аккорды

0 Голосов
Song: Shoot
By: Sonic Youth
Tab by: Jake (jcholewc@sparky.lkwash.wednet.edu)

(This is riff is played through out the song)

-----------------------
-----------------------
-------4-4-4-3--3-3-3--
-2-2-2-----------------
Can I have.....


(Followed by this)

-----------------------------------------
-----------------------------------------
-2-2-2-2-2-2-2-2-2-2-2-2-2-2-2-2-4-4-4-4-
-----------------------------------------
I'm not a little girl....
-----------------------------------------
-----------------------------------------
-2-2-2-2-2-2-2-2-2-2-2-2-2-2-2-2---------
---------------------------------2-2-2-2-

(Then returns to the first part)


Yr Corrections?/Comments??/ideas??? are welcome
e-mail jcholewc@sparky.lkwash.wednet.edu
Другие песни: