Sonic YouthSchizophrenia Текст

0 Голосов
SONIC YOUTH
SCHIZOPHRENIA

bass tab by chris lawrence

G----------------------------------------------------------------------
D--12----------------14--------------12---------------11-12-12-12-etc--
A-----12-12-12-etc------12-12-12-etc----12-12-12-etc-------------------
E----------------------------------------------------------------------

after verse:

A--4-4-4- (w/slight bend)

'my future is static':

A--5-5-5-5-etc-9-9-9-9-9-9-etc-

after that part:

D---etc----0-etc--7-etc

(basically, she plays the 7th fret D harmonic for a bit, then the open
D and 7th fret note back and forth, alternating...listen to the lp for
the exact number of times she plays each note.

at 3:12 she plays:

G----------------------------------------------------------
D--0-0-0-0-etc--7-7-7-7-etc--0-0-0-etc--7-7-7-etc etc etc-
A----------------------------------------------------------
E----------------------------------------------------------

then:

G-------------
D----------7--
A--5----------
E-------------

at 3:56 she plays:

G--------------------------------------
D--------------------------------7-etc-
A--5-5-5 etc--9-9-9- etc--5-etc--------
E--------------------------------------

repeat etc whatever
Другие песни: