Sonic YouthErics Trip Текст

0 Голосов
SONIC YOUTH
ERIC'S TRIP

bass tab by chris lawrence

nifty song..listen to the album for the timing of the notes, i havent done
much to show it here.

all see me
G---------------------------
D---------------------------
A---------------------------
E--7-7-7-7-7-7-7-7--5--5--7-

sometimes i speak
G----------------
D----------------
A----------------
E--7-----------5-

hold the pages up to the light
G-----------------------------
D-----------------------------
A-5-5-5-5-5-5-5-5-7-7-7-7-7-7-
E-----------------------------

instrumental break:

G----------------------------------
D----------------------------------
A----------------------------------
E--7----7----7----7----7----7----7-etc

this is eric's trip..
G----------------------------------------
D----------------------------------------
A----------------------------------------
E--7-7-7-7-etc--5-5-5-5----etc---7-----5-

yeh.
Другие песни: