Sonic YouthCross The Breeze Текст, аккорды

0 Голосов
SONIC YOUTH
'CROSS THE BREEZE

bass tab by chris lawrence

she plays these notes stacatto and really fast..

G-----9-----9-----9-----9-----9------
D------------------------------------
A--7-----7-----7-----7-----7-----7--etc
E------------------------------------

then:

A--76--6-6-6-6-6-

verse:

G-----9----9-----9-----------------
D-------------------10-10-10-10-10-
A--7----7----7---------------------
E----------------------------------

of course, listen to the lp for the timing of the notes

at 3:50 she plays:

D--9-9-9-9-9-etc-10-10-10-10-10-10-etc

then play it all again, yee haw, and end on:

A--7--

the ending follows these notes:

G--------------
D---------10---
A--7-----------
E--------------

have fun
Другие песни: