Sonic YouthBurning Spear Текст, аккорды

0 Голосов
SONIC YOUTH
BURNING SPEAR

Bass tab by Chris Lawrence

G---------------------------------
D---------------------------------
A--0-0--------------0-0-----------
E-------0-0--3-0--------0-0--3-3--

Then:

G---------------
D------0-0------
A--0-0-----0-0--
E---------------

chris
Другие песни: