SodWe All Bleed Red Текст

0 Голосов
we all bleed red


by S.О.D.
from the album 'bigger than the devil'

transcribed by Christian Reindel (creindel@gmx.de)
any questions or corrections-e-mail me

tune down 1/2 step

Intro
3 times
Eb:|-----------------------------|----------------------------|
Bb:|-----------------------------|----------------------------|
Gb:|-----------------------------|----------------------------|
Db:|-----------------------------|----------------------------|
Ab:|--5--4--2--2-2-2-2-2-2-2-2---|--2---2---2---2---2--(2)----|
Eb:|--3--2--0--0-0-0-0-0-0-0-0---|--0---0---0---0---0--(0)----|

verse 1
people divided by colour or greed...
Eb:|--------------------------------------------|
Bb:|--------------------------------------------|
Gb:|--------------------------------------------|
Db:|--------------------------------------------|
Ab:|--2-2--2-7-7-7---5-5--5-7/87/87-----------|
Eb:|--0-0--0-5-5-5---3-3--3-5/65/65-----------|

when done and said
it's in my head
we all bleed red we all bleed red
Eb:|-----------------------------|----------------------------|
Bb:|-----------------------------|----------------------------|
Gb:|-----------------------------|----------------------------|
Db:|-----------------------------|----------------------------|
Ab:|--5--4--2--2-2-2-2-2-2-2-2---|--2---2---2---2---2--(2)----|
Eb:|--3--2--0--0-0-0-0-0-0-0-0---|--0---0---0---0---0--(0)----|

verse 2 unite! to find a better way ...
Eb:|--------------------------------------------|
Bb:|--------------------------------------------|
Gb:|--------------------------------------------|
Db:|--------------------------------------------|
Ab:|--2-2--2-7-7-7---5-5--5-7/87/87-----------|
Eb:|--0-0--0-5-5-5---3-3--3-5/65/65-----------|
when done and said
it's in my head
we all bleed red we all bleed red
Eb:|-----------------------------|----------------------------|
Bb:|-----------------------------|----------------------------|
Gb:|-----------------------------|----------------------------|
Db:|-----------------------------|----------------------------|
Ab:|--5--4--2--2-2-2-2-2-2-2-2---|--2---2---2---2---2--(2)----|
Eb:|--3--2--0--0-0-0-0-0-0-0-0---|--0---0---0---0---0--(0)----|


Eb:|--------------------------------------------|
Bb:|--------------------------------------------|
Gb:|--------------------------------------------|
Db:|------------------9-9-9-9-9-9-9-9-----------|
Ab:|--2-2-2-2-2-2-2-2-7-7-7-7-7-7-7-7-----------|
Eb:|--0-0-0-0-0-0-0-0---------------------------|

now mosh part...
3x 1x
Eb:|----------------------|----------------------------|
Bb:|----------------------|----------------------------|
Gb:|----------------------|----------------------------|
Db:|----------------------|----------------------------|
Ab:|--------------5-------|--------------5--3----------|
Eb:|--3--2--0--3-----0----|--3--2--0--3--------5---3---|


we all bleed red
Eb:|----------------|
Bb:|----------------|
Gb:|----------------|
Db:|----------------|
Ab:|--5-----4----2--|
Eb:|--3-----2----0--|


when done and said
it's in my head
we all bleed red we all bleed red
Eb:|-----------------------------|-------------------------|
Bb:|-----------------------------|-------------------------|
Gb:|-----------------------------|-------------------------|
Db:|-----------------------------|-------------------------|
Ab:|--5--4--2--2-2-2-2-2-2-2-2---|--2---2---2---2---2------|
Eb:|--3--2--0--0-0-0-0-0-0-0-0---|--0---0---0---0---0------|

end.
Другие песни: