SodMilk Текст

0 Голосов
Tabbed by: Ben Connelly


E-mail: ibanez64@hotmail.com

This tab is in Drop-D tuning, that's how I play of the Stormtroopers Of Death songs.

|---------------------------------------|
|---------------------------------------|
|---------------------------------------|
|-2-3-2---0-2-3-2---2-3-2---0-2-3-5-3---| x2
|-2-3-2---0-2-3-2---2-3-2---0-2-3-5-3---|
|-2-3-2---0-2-3-2---2-3-2---0-2-3-5-3---|

|----------------------------------------------------|
|----------------------------------------------------|
|----------------------------------------------------|
|-2-3-2--------0-2-3-2--------2-3-2--------0-2-3-5-3-| x4
|-2-3-2--------0-2-3-2--------2-3-2--------0-2-3-5-3-|
|-2-3-2--0-0-0-0-2-3-2--0-0-0-2-3-2--0-0-0-0-2-3-5-3-|
PM*** PM*** PM***

|-------------------------------------------------|
|-------------------------------------------------|
|-4-5-4--------7-5-4--------4-5-4--------7-5-2-4--|
|-4-5-4--------7-5-4--------4-5-4--------7-5-2-4--| x2
|-2-3-2--2-2-2-5-3-2--2-2-2-2-3-2--2-2-2-5-3-0-2--|
|-------------------------------------------------|
PM*** PM*** PM***

|----------------------------|
|----------------------------|
|-9-10-12-10-9-7-10-10-10-10-|
|-9-10-12-10-9-7-10-10-10-10-| x6
|-7--8-10--8-7-5--8--8--8--8-|
|----------------------------|

|----------------------------------------------------|
|----------------------------------------------------|
|----------------------------------------------------|
|-2-3-2--------0-2-3-2--------2-3-2--------0-2-3-5-3-| x2
|-2-3-2--------0-2-3-2--------2-3-2--------0-2-3-5-3-|
|-2-3-2--0-0-0-0-2-3-2--0-0-0-2-3-2--0-0-0-0-2-3-5-3-|
PM*** PM*** PM***

|-------------------------------------------------|
|-------------------------------------------------|
|-4-5-4--------7-5-4--------4-5-4--------7-5-2-4--|
|-4-5-4--------7-5-4--------4-5-4--------7-5-2-4--| x2
|-2-3-2--2-2-2-5-3-2--2-2-2-2-3-2--2-2-2-5-3-0-2--|
|-------------------------------------------------|
PM*** PM*** PM***

|----------------------------|
|----------------------------|
|-9-10-12-10-9-7-10-10-10-10-|
|-9-10-12-10-9-7-10-10-10-10-| x6
|-7--8-10--8-7-5--8--8--8--8-|
|----------------------------|

|----------------------------------------------------|
|----------------------------------------------------|
|----------------------------------------------------|
|-2-3-2--------0-2-3-2--------2-3-2--------0-2-3-5-3-| x1
|-2-3-2--------0-2-3-2--------2-3-2--------0-2-3-5-3-|
|-2-3-2--0-0-0-0-2-3-2--0-0-0-2-3-2--0-0-0-0-2-3-5-3-|
PM*** PM*** PM***


|------------------------------------------------------|
|------------------------------------------------------|
|------------------------------------------------------|
|-2-3-2--------0-2-3-2--------2-3-2--------0-2-3-5-3-2-| x1
|-2-3-2--------0-2-3-2--------2-3-2--------0-2-3-5-3-2-|
|-2-3-2--0-0-0-0-2-3-2--0-0-0-2-3-2--0-0-0-0-2-3-5-3-2-|
PM*** PM*** PM***


That's the song, in the beginning there's a bass part but you jump in with it
if you're playing along with someone else. Listen to the song to catch the rythm.
Другие песни: