SodChromatic Death Текст

0 Голосов
S.О.D. - СНRОМАТIС DEATH 
From the Album - SPEAK ENGLISH ОR DIE
Copyright: МЕGАFОRСЕ RЕСОRDS 1985
Version 2.0 - Febuary, 2002

Transcribed By: John McNeal (Souls of Black)

For Questions, Comments, Newest Version, Corrections or Request;
Contact Souls of Black: at Lynching@aol.com

Fixed Riff 2.

Riff 1
|---------------------|
|---------------------|
|---------------------|
|-5----5----5----5----|
|-5----5----5----5----|
|-3----3----3----3----|

Riff 2
|--------------------------|
|--------------------------|
|--------------------------|
|--------------------------| x 2
|-000333222111000111222333-|
|--------------------------|

|--------------------------|
|--------------------------|
|--------------------------|
|--------------------------| x 2
|-111444333222111222333444-|
|--------------------------|

|--------------------------|
|--------------------------|
|--------------------------|
|--------------------------| x 2
|-222555444333222333444555-|
|--------------------------|


Riff 3
|-------------------------|
|-------------------------|
|-------------------------|
|-5----5----5----5----5---|
|-5----5----5----5----5---|
|-3----3----3----3----3---|

Riff 1
Riff 2
Riff 1
Riff 2
Riff 3
Другие песни: