Snow PatrolDownhill From Here Текст

0 Голосов
----------------------------------------------------------------------------

Downhill From Here - Snow Patrol
----------------------------------------------------------------------------
Tabbed by:Stevo
Email:Maccaisknackered@hotmail.com

Great song to start the 1st album by Gary Lightbody (not Roddy!!lol)

Tuning:EADGBE (although can easily be played in drop D)


Intro (in background of verse aswell)

Lightly palm mute.

e|---------------------------------------------------------------------------|
B|---------------------------------------------------------------------------|
G|---------------------------------------------------------------------------|
D|---------------------------------------------------------------------------|
A|-----------------------4---4--4--4-4-4-------0---0---0--0---0---0---0---0--|
E|-----0---0---0--0----------------------------------------------------------|

Verse (same notes, but power chords)


E5 c#5 A5
e|--------------------------------------------------------------------------|
B|--------------------------------------------------------------------------|
G|--------------------------------------------------------------------------|
D|------------------------------6--6--6--6----------------------------------|
A|----2--2--2--2----------------4--4--4--4--------------7--7--7--7----------|
E|----0--0--0--0----------------------------------------5--5--5--5----------|


Repeated through verse.


Chorus


A D F# C#
e|--------------------------------------------------------------------------|
B|--------------------------------------------------------------------------|
G|------------------------------77------44------66--------------------------|
D|------7-7-7-7-----------------77------44------66--------------------------|
A|------7-7-7-7-----------------55------22------44--------------------------|
E|------5-5-5-5-------------------------------------------------------------|

Repeat until end of chorus which finishes on:


c
e|--------------------------------------------------------------------------|
B|--------------------------------------------------------------------------|
G|------5-------------------------------------------------------------------|
D|------5-------------------------------------------------------------------|
A|------3-------------------------------------------------------------------|
E|--------------------------------------------------------------------------|

Thats it really.


| / slide up
| slide down
| h hammer-on
| p pull-off
| ~ vibrato
| + harmonic
| x Mute note
============================================================================
Другие песни: