Smile Empty SoulI Want My Life Текст, аккорды

0 Голосов
eb|-------0-----------3------2------2-----------------------------------| 

Bb|-3--------3------------0--------------1------1p0--0-0-----5-----3----|
Gb|----0--------0---------------------------0---------------------------|
Db|----------------0--2------0--0-0-------------------------------------|
Ab|-2------------------------------------3----------------3-----3-----0-|
Eb|---------------------------------------------------------------------|

eb|-------------0--------------3---2----2----------------------------------|
Bb|-------3--------3-------------------------1--1p0---0-0--------5-------3-|
Gb|--------------------0---------------------------------------------------|
Db|-----------------------0--2---0---0-------------------------------------|
Ab|--2-2----2------------------------------3---------------0--3------3-----|
Eb|------------------------------------------------------------------------|


Verse


eb|---------------------------------------------------------------------|
Bb|---------------------------------------------------------------------|
Gb|-----------------999---777----------------999---111111---------------|
Db|-2222------------xxx---xxx-------5555-----xxx----x-x-x---------------|
Ab|-2222------------777---555-------5555-----777----9-9-9---------------|
Eb|---------------------------------3333--------------------------------|





Chorus:
eb|-------0-----------3------2------2-----------------------------------|
Bb|-3--------3------------0--------------1------1p0--0-0-----5-----3----|
Gb|----0--------0---------------------------0---------------------------|
Db|----------------0--2------0--0-0-------------------------------------|
Ab|-2------------------------------------3----------------3-----3-----0-|
Eb|---------------------------------------------------------------------|
I want my life
eb|-------------0--------------3---2----2----------------------------------|
Bb|-------3--------3-------------------------1--1p0---0-0--------5-------3-|
Gb|--------------------0---------------------------------------------------|
Db|-----------------------0--2---0---0-------------------------------------|
Ab|--2-2----2------------------------------3---------------0--3------3-----|
Eb|------------------------------------------------------------------------|
I want my life


Bridge:
eb|-3--5--5/7--5--3----2--3--3h5--3--2-----0---------------------------|
Bb|---------------------------------------------3---1----0-------------|
Gb|-----------------------------------------------------------0--------|
Db|----------------------------------------------------------------4---|
Ab|--------------------------------------------------------------------|
Eb|--------------------------------------------------------------------|
and when I wаке up you'll be here
eb|-3--5--5/7--5--3----2--3--3h5--3--2-----0---------------------------|
Bb|---------------------------------------------3---1----0----0--------|
Gb|----------------------------------------------------------------2---|
Db|--------------------------------------------------------------------|
Ab|--------------------------------------------------------------------|
Eb|--------------------------------------------------------------------|
and it will be the way it was the way it was ...



Tabbed by Martin a.к.a. Chino

latinboyp8630@hotmail.com
Другие песни: