Smashing PumpkinsDrown Текст

0 Голосов
Song: Drown
Artist: Smashing Pumpkins
Tunning: drop D tuning

G-------------------------------|
D--7--7-7-9-7-------------------| play twice
A--------------7--7-7-7-9-9-9-7-|
D-------------------------------|

G-----------------------------|-------7-6------------------|
D--7--7-7-9-7-----------------|7--7-7-----7----------------|
A--------------7--7--7-7-9-7--|-------------7--7-7-7-9-9-77|
D-----------------------------|----------------------------|

play those four bars a few times. There are some variations
on the {--7--7-7-7-9-9-9-7--} part on the A string, but its
basically those two notes, with some hammer ons and what not
mixed in. Anyways...
*let ring-------
Low D--10---10----10----10-----5---5---5---------------
all of those yes-ter-days come

G--------------------------------------11--9--|
D---------------------------------------------|
A---------------------------------------------|
D---7---------7---------0---------------------|
un-done (let these notes ring)

then repeat from the start again for 2nd verse

bridge:
G--------------------------------------------------------|
D--------7-7----------7-7-7-7----------------------------|
A--0-0-0-----0--0-0-0---------0--------------------------|
D--------------------------------0--0-0-0--0-0--0-2-0-2-4|
play twice
low
D--7-7-7-7-7-7-7-7-/10--10-10-10-5--5-5-5--5-5--5--5-5-5-5|

play twice, then

low
D--7-7-7-2-/10--10-10-10--5--5-5-5--5-5--5--5-5-5-5|

play that twice, then the breakdown:

A--5----0-----5----0----5----0-----5----0

A--5--5-5-5--5-5--5--5-5-0
Другие песни: