SloanShe Says What She Means Текст

0 Голосов
She Says What She Means - Sloan


Intro/Verse :
e-------------------------------------------------|
B-------------------------------------------------|
G-------------------------------------------------|
D-------------------------------------------------|
A--------------------------0--0--2-2-2-4-4-4-5--7-|
E-9~0--0-2-2-2-4-4-4-5--7-------------------------|

A
e-------------------|
B------------2------|
G------------2------|
D------------0------|
A---4--2--0---------|
E-------------------|


chords for pre-chorus:
F C5 E
F C5 E A
F G F G

verse : riff 1
F C5 E
F C5 E A
F G C Em

e-------------------------------------------------------------------|
B-------------------------------------------------------------------|
G-------------------------------------------------------------------|
D-------------------------------------------------------------------|
A--5-5--3-3--2-2-0---------0-0---2-2--3-3--2-2--0-------------0~(5)-|
E------------------1-1-3-3-------------------------3~0-1-1-3-3------|
(repeat twice)


A B7 C7 D7 A (repeat 3 times)
E5 D5 A5 D5 (repeat until end)
and then thrown in the opening riff 1-a
Другие песни: