SlipknotThe Blister Exists Текст

0 Голосов
Slipknot - The Blister Exists

Tabbed by: Xavieres
Tunning: C#,G#,E,B,F#,b

Intro:
Guitar 1:
|--------------| |--------------| |--------------| |--------------|
|--------------| |--------------| |--------------| |--------------|
|--------------| |--------------| |--------------| |--------------|
|--------------| |--------------| |--------------| |--------------|
|-3-1-0-x-0-0--| |-3-1-0-x-0-0--| |-3-1-0-x-0-0--| |-3-1-0-x-0-0--|
|-3-1-0-x-0-0--| |-3-1-0-x-0-0--| |-3-1-0-x-0-0--| |-3-1-0-x-0-0--|

Guitar 2:
|--------------| |--------------|
|--------------| |--------------|
|--------------| Guitar 2 Mute |--------------| Guitar 2 Mute
|--------------| |--------------|
|-3-1-0-x-0-0--| |-3-1-0-x-0-0--|
|-3-1-0-x-0-0--| |-3-1-0-x-0-0--|
|______________| |______________|
3x 3x

Guitars 1&2: x9
|--------------|
|--------------|
|--------------|
|--------------|
|-3-1-0-x-0-0--|
|-3-1-0-x-0-0--|


Verse 1: x8
Guitars 1&2
|----------------------------------|
|----------------------------------|
|----------------------------------|
|----------------------------------|
|-0-x-0-0-x-111111-0-x-0-0-x-1-1-1-|
|-0-x-0-0-x-111111-0-x-0-0-x-1-1-1-|


Chorus: x8
Guitars 1&2
|------------------|
|------------------|
|------------------|
|------------------|
|-0-x-0-1-x--2-3-2-|
|-0-x-0-1-x--2-3-2-|


Verse 2:
Guitar 1: x4
|---------------------9999999999999999109876543210-|
|-33333333332222222222-----------------------------|
|--------------------------------------------------|
|--------------------------------------------------|
|--------------------------------------------------|
|--------------------------------------------------|

|---------------------999999999999999924681086420--|
|-33333333332222222222-----------------------------|
|--------------------------------------------------|
|--------------------------------------------------|
|--------------------------------------------------|
|--------------------------------------------------|

Guitar 2: x8
|----------------------------------|
|----------------------------------|
|----------------------------------|
|----------------------------------|
|----------------------------------|
|-0-x-0-0-x-111111-0-x-0-0-x-1-1-1-|
|____| |___|
P.M. P.M.


Chorus: x8
Guitars 1&2
|------------------|
|------------------|
|------------------|
|------------------|
|-0-x-0-1-x--2-3-2-|
|-0-x-0-1-x--2-3-2-|


Verse 3:
Guitar 1:
|---------------------9999999999999999109876543210-|
|-33333333332222222222-----------------------------|
|--------------------------------------------------|
|--------------------------------------------------|
|--------------------------------------------------|
|--------------------------------------------------|

Guitar 2 mute

Guitar 1:
|---------------------999999999999999924681086420--|
|-33333333332222222222-----------------------------|
|--------------------------------------------------|
|--------------------------------------------------|
|--------------------------------------------------|
|--------------------------------------------------|

Guitar 2:
|----------------------------------|
|----------------------------------|
|----------------------------------|
|----------------------------------|
|-0-0-x---------------0-0-0----8/1-|
|-0-0-x---------------0-0-0----8/1-|


Verse 4: x4
Guitars 1&2
|----------------------------------|
|----------------------------------|
|----------------------------------|
|----------------------------------|
|-0-x-0-0-x-111111-0-x-0-0-x-1-1-1-|
|-0-x-0-0-x-111111-0-x-0-0-x-1-1-1-|


Verse 5:
Guitar 1:
|---------------------9999999999999999109876543210-|
|-33333333332222222222-----------------------------|
|--------------------------------------------------|
|--------------------------------------------------|
|--------------------------------------------------|
|--------------------------------------------------|

|---------------------999999999999999924681086420--|
|-33333333332222222222-----------------------------|
|--------------------------------------------------|
|--------------------------------------------------|
|--------------------------------------------------|
|--------------------------------------------------|

Guitar 2: x2
|----------------------------------|
|----------------------------------|
|----------------------------------|
|----------------------------------|
|-0-x-0-0-x-111111-0-x-0-0-x-1-1-1-|
|-0-x-0-0-x-111111-0-x-0-0-x-1-1-1-|


Chorus: x4
Guitars 1&2
|------------------|
|------------------|
|------------------|
|------------------|
|-0-x-0-1-x--2-3-2-|
|-0-x-0-1-x--2-3-2-|


Chorus 2:
Guitar 1: x4
|------------------|
|------------------|
|------------------|
|------------------|
|-0-x-0-1-x--2-3-2-|
|-0-x-0-1-x--2-3-2-|

Guitar 2:
|---------------------------------|
|---------------------------------|
|---------------------------------|
|-7-7-7-5-5-5-5-5-7-7-7-0-0-0-0-0-|
|---------------------------------|
|---------------------------------|


Chorus 3: x8
|-----------------------------|
|-----------------------------|
|-----------------------------|
|-----------------------------|
|-2--2-0--7-6-7-6-0-3-3-3-3-3-|
|-2--2-0--7-6-7-6-0-3-3-3-3-3-|


Verse 6:
Guitars 1&2
|----------| |--------------------------------------|
|----------| |--------------------------------------|
|----------| Drums solo |--------------------------------------|
|----------| |--------------------------------------|
|-1----0-x-| |-1----0-x-0123200230--0-0-0-0-0-0-1---|
|-1----0-x-| |-1----0-x-0123200230--0-0-0-0-0-0-1---|
|______________________________________|
x4

Verse 7:
Guitar 1: x4
|---------------------9999999999999999109876543210-|
|-33333333332222222222-----------------------------|
|--------------------------------------------------|
|--------------------------------------------------|
|--------------------------------------------------|
|--------------------------------------------------|

|---------------------999999999999999924681086420--|
|-33333333332222222222-----------------------------|
|--------------------------------------------------|
|--------------------------------------------------|
|--------------------------------------------------|
|--------------------------------------------------|

Guitar 2: x4
|--------------------------------------|
|--------------------------------------|
|--------------------------------------|
|--------------------------------------|
|-1----0-x-0123200230--0-0-0-0-0-0-1---|
|-1----0-x-0123200230--0-0-0-0-0-0-1---|


Chorus:
Guitar 1: x8
|------------------|
|------------------|
|------------------|
|------------------|
|-0-x-0-1-x--2-3-2-|
|-0-x-0-1-x--2-3-2-|


Chorus 2:
Guitar 1: x8
|------------------|
|------------------|
|------------------|
|------------------|
|-0-x-0-1-x--2-3-2-|
|-0-x-0-1-x--2-3-2-|

Guitar 2:
|---------------------------------|
|---------------------------------|
|---------------------------------|
|-7-7-7-5-5-5-5-5-7-7-7-0-0-0-0-0-|
|---------------------------------|
|---------------------------------|


Chorus 3: x16
|-----------------------------|
|-----------------------------|
|-----------------------------|
|-----------------------------|
|-2--2-0--7-6-7-6-0-3-3-3-3-3-|
|-2--2-0--7-6-7-6-0-3-3-3-3-3-|


Verse 8: x4
Guitars 1&2
|----------|-----------------------------|
|----------|-----------------------------|
|----------|-----------------------------|
|----------|-----------------------------|
|-1----0-x-|-0123200230--0-0-0-0-0-0-1---|
|-1----0-x-|-0123200230--0-0-0-0-0-0-1---|
Другие песни: