SlayerReborn Текст

0 Голосов
SLAYER

R E B О R N
From their thrashterpiece 'Reign in Blood'

Tabbed by: Jason Mathie
Mathie@unixg.ubc.ca

The only tune on this album I haven't seen a tab for.

Comments:

Оnlу the two low strings required for the riffs in this song.

I won't bother specifying palm muting. Just use light palm muting on
the double picked sixteenth notes.

As usual, guitars are tuned to Eb. Hanneman has the left stereo channel.
When I show both guitars playing at once, Hanneman is on the top.

Starting Tempo: 130 bpm

Intro Riff
Ab|2-----------------------4-5-----|----------------5-------5-8-----|
Eb|0-----------------------2-3-----|----------------3-------3-6-----|
| | |
Ab|2-------98-----4-------4-5-----|2-------98-----5-------5-8-----|
Eb|0---0-0-76-0-0-2---0-0-2-3-----|0---0-0-76-0-0-3---0-0-3-6-----|

Riff A
Ab|2-------98-----4-------4-5-----|2-------98-----5-------5-8-----|
Eb|0---0-0-76-0-0-2---0-0-2-3-----|0---0-0-76-0-0-3---0-0-3-6-----|

Play Intro Riff
Play Riff A 3x

Then play:
Ab|----------------|------------8---|
Eb|222222222-2-3-3-|222222222-0-6---|
| | |
Ab|------------5-5-|------------8---|
Eb|------------3-3-|------------6---|

Riff B
Ab|----------------|------------8---|
Eb|222222222-2-3-3-|222222222-0-6---|

Increase tempo to 220 bpm
Play Riff B 3x

Riff C
Ab|----------------|----------------|
Eb|00000-0-4-0-3-0-|00000-0-3-0-2-0-|

Play Riff C 4x with lyrics:

Convicted witch my life will end
At midnight on the stake
My dedicated life was spent
To insubordinate
Secured by lock inside a cell
Imprisoned for no crime
These shackles will be useless
When your life is out of time

Riff D
Ab|----------------|------------5---|----------------|------------9---|
Eb|1111111155555555|444444444-0-3---|1111111155555555|444444444-0-7---|

Play Riff D 4x with lyrics:

Incantation spell gone by
I will see life again
My deals will be made eternally
I signed the book of red
My rage will be unleashed again
Burning the next morn
Death means nothing, there is no end
I will be reborn

Play Riff B 2x
Play Riff C 4x with lyrics:

No gift of exile in my fate
I'll get no amnesty
You can't control my destiny
There is no habitual need
Proclaim my death, to end my wrath
It takes more than one try
Indulge your ineffective cause
I will never die

Play Riff D 2x with lyrics:

You think by killing me tonight
My powers will not rise
There'll be nowhere for you to run
When my hatred comes to life
Condemned to fill the prophecy
Allowing no first born
Defy your morbid declaration
Leave you ripped and torn

Then play: (Hanneman plays some variation on this riff
but I can't figure out exactly what it is)
Ab|----------------|------------8---|----------------|------------8---|
Eb|222222222-2-3-3-|222222222-0-6---|222222222-2-3-3-|222222222-0-6---|
| | | | |
Ab|----------------|----------------|------------5-5-|------------8---|
Eb|----------------|----------------|------------3-3-|------------6---|

Play Riff B 2x

Riff E
Ab|----------------|------------7----|
Eb|4444444488888888|7777777777--5----|

RightGtr plays Riff E 4x while LeftGtr solos, in typical form

Riff F
Ab|----------------|------------4---|
Eb|0000000011111111|444444443-0-2---|

RightGtr plays Riff F 4x while LeftGtr continues soloing

Play Riff B 6x, with lyrics on last 4x:

Count your blessings would be priest
As I burn upon the stake
You'd be forgiven endlessly
But your values are all fake
Forever servant of my lord
By choice and not submission
Maybe now I've made you wonder
Am I superstition

Play Riff D 2x, with lyrics as before:

Incantation spell gone by
I will see...

Riff G
/=3= /=3= /=3= /=3=
Ab|------------------------|
Eb|3-3-2-5-2-2-3-3-2-5-2-2-|

Play Riff G 8x
RightGtr plays Riff F 5x while LeftGtr solos

E-mail me with any concerns, questions, requests, corrections...
Mathie@unixg.ubc.ca
Другие песни: