SlapshockNumb Текст

0 Голосов
#----------------------------------PLEASE NOTE--------------------------------#

#This file is the author's own work and represents their interpretation of the#
#song. You may only use this file for private study, scholarship, or research.#
#-----------------------------------------------------------------------------#

Numb - Slapshock

Tabbed by: Jonathan A. Carmona
Email:jon2_83@yahoo.com

Tuning: Drop – D
Low to high (D A D G B e)
-------------------------------------------------------------------------------
Intro:
-------------------------------------------------------------------------------

Fig. A (4x)
e|---------------------------------------------------------------------------|
B|---------------------------------------------------------------------------|
G|---------------------------------------------------------------------------|
D|---0-222--0-222--0-22------------------------------------------------------|
A|---0-222--0-222--0-22------------------------------------------------------|
D|---0-222--0-222--0-22------------------------------------------------------|

Fig. B (4x)
e|---------------------------------------------------------------------------|
B|---------------------------------------------------------------------------|
G|---777--777--777—77/8------------------------------------------------------|
D|---xxx--xxx--xxx-xx/x------------------------------------------------------|
A|---555--555--555-55/6------------------------------------------------------|
D|---------------------------------------------------------------------------|

-------------------------------------------------------------------------------
Verse 1:
-------------------------------------------------------------------------------

Fig. A
e|---------------------------------------------------------------------------|
B|---------------------------------------------------------------------------|
G|---77777--777777--77777—7~-------------------------------------------------|
D|---77777--555555--77777-5~-------------------------------------------------|
A|---55555--555555--55555-5~-------------------------------------------------|
D|---------------------------------------------------------------------------|

Fig. B
e|---------------------------------------------------------------------------|
B|---------------------------------------------------------------------------|
G|---------------------------------------------------------------------------|
D|---0-0-0--000----0-0-0---000-----------------------------------------------|
A|---0-0-0--000----0-0-0---000-----------------------------------------------|
D|---0-0-0--000----0-0-0---000-----------------------------------------------|

Gtr. 2 Fill 1 (listen for the timing)

e|---10----------10--------10--11-11-----------------------------------------|
B|-------10-10------10-10----------------------------------------------------|
G|---------------------------------------------------------------------------|
D|---------------------------------------------------------------------------|
A|---------------------------------------------------------------------------|
D|---------------------------------------------------------------------------|

-------------------------------------------------------------------------------
Pre Chorus
-------------------------------------------------------------------------------

e|---------------------------------------------------------------------------|
B|---------------------------------------------------------------------------|
G|----------------------------777--777--77-----------------------------------|
D|--0---0—3p0-3p0-3h5---------xxx--xxx--xx-----------------------------------|
A|--0---0—3p0-3p0-3h5—(3x)----555--555--55-----------------------------------|
D|--0---0—3p0-3p0-3h5--------------------------------------------------------|

-------------------------------------------------------------------------------
Chorus 1 (play these riffs 2x)
-------------------------------------------------------------------------------

Fig. A (Gtr. 1)

e|---------------------------------------------------------------------------|
B|---------------------------------------------------------------------------|
G|---------------------------------------------------------------------------|
D|--777777--888888--333333---------------------------------------------------|
A|--777777--888888--333333---------------------------------------------------|
D|--777777--888888--333333---------------------------------------------------|
| |
| Fill 2 (Gtr. 2 listen for the timing) |
e|---------------------------------------------------------------------------|
B|---------------------------------------------------------------------------|
G|----------------------------7--9--10--9--7---------------------------------|
D|----------------------------x--x--x---x--x---------------------------------|
A|----------------------------5--7--8---7--5---------------------------------|
D|---------------------------------------------------------------------------|

Fig. B (Gtr. 1)

e|---------------------------------------------------------------------------|
B|---------------------------------------------------------------------------|
G|---------------------------------------------------------------------------|
D|---777777--333333--000000--------------------------------------------------|
A|---777777--333333--000000--------------------------------------------------|
D|---777777--333333--000000--------------------------------------------------|
| |
| Fill 3 (Gtr.2 listen for the timing) |
e|---------------------------------------------------------------------------|
B|---------------------------------------------------------------------------|
G|----------------------------7--9--10--7------------------------------------|
D|----------------------------x--x--x---x------------------------------------|
A|----------------------------5--7--8---5------------------------------------|
D|---------------------------------------------------------------------------|

-------------------------------------------------------------------------------
Post Chorus: (4x)
-------------------------------------------------------------------------------

e|---------------------------------------------------------------------------|
B|---------------------------------------------------------------------------|
G|---777--777--777—77/8------------------------------------------------------|
D|---xxx--xxx--xxx-xx/x------------------------------------------------------|
A|---555--555--555-55/6------------------------------------------------------|
D|---------------------------------------------------------------------------|

Verse 2:(Repeat Verse 1 Riffs)
Pre Chorus: (Repeat Pre Chorus Riffs)

-------------------------------------------------------------------------------
Chorus 2:
-------------------------------------------------------------------------------

Fig. A (Gtr. 1)

e|---------------------------------------------------------------------------|
B|---------------------------------------------------------------------------|
G|---------------------------------------------------------------------------|
D|--777777--888888--333333---------------------------------------------------|
A|--777777--888888--333333---------------------------------------------------|
D|--777777--888888--333333---------------------------------------------------|
| |
| Fill 2 (Gtr. 2 listen for the timing) |
e|---------------------------------------------------------------------------|
B|---------------------------------------------------------------------------|
G|----------------------------7--9--10--9--7---------------------------------|
D|----------------------------x--x--x---x--x---------------------------------|
A|----------------------------5--7--8---7--5---------------------------------|
D|---------------------------------------------------------------------------|

e|---------------------------------------------------------------------------|
B|---------------------------------------------------------------------------|
G|---------------------------------------------------------------------------|
D|---------------------------------------------------------------------------|
A|---------------------------------------------------------------------------|
D|---------------------------------------------------------------------------|

Fig. B (Gtr. 1)

e|---------------------------------------------------------------------------|
B|---------------------------------------------------------------------------|
G|---------------------------------------------------------------------------|
D|---777777--333333--000000--------------------------------------------------|
A|---777777--333333--000000--------------------------------------------------|
D|---777777--333333--000000--------------------------------------------------|
| |
| Fill 3 (Gtr.2 listen for the timing) |
e|---------------------------------------------------------------------------|
B|---------------------------------------------------------------------------|
G|----------------------------7--9--10--7------------------------------------|
D|----------------------------x--x--x---x------------------------------------|
A|----------------------------5--7--8---5------------------------------------|
D|---------------------------------------------------------------------------|

Fig. C (2x)

e|---------------------------------------------------------------------------|
B|---------------------------------------------------------------------------|
G|---------------------------------------------------------------------------|
D|---7~~~~~--3~~~~~--0~~~~~--------------------------------------------------|
A|---7~~~~~--3~~~~~--0~~~~~--------------------------------------------------|
D|---7~~~~~--3~~~~~--0~~~~~--------------------------------------------------|

-------------------------------------------------------------------------------
Bridge:(Repeat this riff a bunch of times)
-------------------------------------------------------------------------------

e|---------------------------------------------------------------------------|
B|---------------------------------------------------------------------------|
G|---------------------------------------------------------------------------|
D|---------------------------------------------------------------------------|
A|---------------------------------------------------------------------------|
D|----0h10h12—0h10h12—0h10h12—0h10h12----------------------------------------|

-------------------------------------------------------------------------------
Chorus 3:
-------------------------------------------------------------------------------

Fig. A (Gtr. 1)

e|---------------------------------------------------------------------------|
B|------------P--------------------------------------------------------------|
G|------------A--------------------------------------------------------------|
D|--777777—-8-U-888333333---------------------------------------------------|
A|--777777—-8-S-888333333---------------------------------------------------|
D|--777777—-8-E-888333333---------------------------------------------------|
| |
| Fill 2 (Gtr. 2 listen for the timing) |
e|---------------------------------------------------------------------------|
B|---------------------------------------------------------------------------|
G|----------------------------7--9--10--9--7---------------------------------|
D|----------------------------x--x--x---x--x---------------------------------|
A|----------------------------5--7--8---7--5---------------------------------|
D|---------------------------------------------------------------------------|

Fig. B (Gtr. 1)

e|---------------------------------------------------------------------------|
B|---------------------------------------------------------------------------|
G|---------------------------------------------------------------------------|
D|---777777--333333--000000--------------------------------------------------|
A|---777777--333333--000000--------------------------------------------------|
D|---777777--333333--000000--------------------------------------------------|
| |
| Fill 3 (Gtr.2 listen for the timing) |
e|---------------------------------------------------------------------------|
B|---------------------------------------------------------------------------|
G|----------------------------7--9--10--7------------------------------------|
D|----------------------------x--x--x---x------------------------------------|
A|----------------------------5--7--8---5------------------------------------|
D|---------------------------------------------------------------------------|

Fig. C (Gtr.1)

e|---------------------------------------------------------------------------|
B|---------------------------------------------------------------------------|
G|---------------------------------------------------------------------------|
D|--777777--888888--333333---------------------------------------------------|
A|--777777--888888--333333---------------------------------------------------|
D|--777777--888888--333333---------------------------------------------------|
| |
| Fill 2 (Gtr. 2 listen for the timing) |
e|---------------------------------------------------------------------------|
B|---------------------------------------------------------------------------|
G|----------------------------7--9--10--9--7---------------------------------|
D|----------------------------x--x--x---x--x---------------------------------|
A|----------------------------5--7--8---7--5---------------------------------|
D|---------------------------------------------------------------------------|

Fig. D (Gtr.1)

e|---------------------------------------------------------------------------|
B|---------------------------------------------------------------------------|
G|---------------------------------------------------------------------------|
D|---777777--333333--000000--------------------------------------------------|
A|---777777--333333--000000--------------------------------------------------|
D|---777777--333333--000000--------------------------------------------------|
| |
| Fill 3 (Gtr.2 listen for the timing) |
e|---------------------------------------------------------------------------|
B|---------------------------------------------------------------------------|
G|----------------------------7--9--10--7------------------------------------|
D|----------------------------x--x--x---x------------------------------------|
A|----------------------------5--7--8---5------------------------------------|
D|---------------------------------------------------------------------------|

-------------------------------------------------------------------------------
Outro: (4x)
-------------------------------------------------------------------------------

e|---------------------------------------------------------------------------|
B|---------------------------------------------------------------------------|
G|---777--777--777—77/8------------------------------------------------------|
D|---xxx--xxx--xxx-xx/x------------------------------------------------------|
A|---555--555--555-55/6------------------------------------------------------|
D|---------------------------------------------------------------------------|

-------------------------------------------------------------------------------
End:
-------------------------------------------------------------------------------

e|---------------------------------------------------------------------------|
B|---------------------------------------------------------------------------|
G|---------------------------------------------------------------------------|
D|---7~~~~~--3~~~~~--0~~~~~--------------------------------------------------|
A|---7~~~~~--3~~~~~--0~~~~~--------------------------------------------------|
D|---7~~~~~--3~~~~~--0~~~~~--------------------------------------------------|

| / slide up
| slide down
| h hammer-on
| p pull-off
| ~ let ring
| + harmonic
| x Mute note

===============================================================================

Lyrics:

I’ll try to move myself to down
And not inside will go away
A thousand days I try to waste
I feel the same like I’m still okay

Refrain:
I feel you, you don’t feel me
I see you, you don’t see me

Chorus:
Duck, duck coz as we step back to back
Coz I see you disappear, and my eyes fades to black
I wanna let it out, when I’m back on the track
Causing you to move, and bring you a heart attack

And I feel the pain, like a needle in my vein now
Hurt myself coz I think I didn’t know how
Cut myself and watch me bleed
Turn around as I watch you leave

Don’t take away your eyes
Coz I know your beside me but I just can hold and sleep

I wish I’m numb inside
Coz I don’t want this feeling, this feeling that I cant hide
1… 2… 3… 4… (step back to back)

I try to crawl inside of you
And make you feel those things you do
I turn away to watch you drowned
I’m still right here, try to hear the sound

(Repeat refrain and chorus)

Coz I feel, step back to back
1…1…1… uhhh

(Repeat refrain and chorus)
Другие песни: