SlapshockDrown Текст

0 Голосов
TUNING: D G C F A D (whole step down)


INTRO:
D|---------------------------------------------| |------------------------------------------|
A|---------------------------------------------| |------------------------------------------|
F|---------------------------------------------| |------------------------------------------|
C|-2-2--2-2--2-2--2-2--2-2--2-2--2-2--2-2------| |------------------------------------------|
G|-2-2--2-2--2-2--2-2--2-2--2-2--2-2--2-2------| |--2-2--2-2--2-2--2-2--2-2--2-2--5---5---5-|
D|-0-0--0-0--0-0--0-0--0-0--0-0--0-0--0-0-12--| |--0-0--0-0--0-0--0-0--0-0--0-0--3-0-3-0-3-|

D|----------------------------------------------------|
A|----------------------------------------------------|
F|----------------------------------------------------|
C|--2--2--2--2--2--2--2--2--2--2--2--2--9--9-9--9-9--|
G|--2--2--2--2--2--2--2--2--2--2--2--2--7--7-7--7-7--|
D|--0--0--0--0--0--0--0--0--0--0--0--0----------------|
(..............................P.M.)
(.......................8x)
D|-----------------------------|
A|-----------------------------|
F|-----------------------------|
C|--2---x-x-9-----------------|
G|--2---x-x-7------3^5^3------|
D|--0---x-x-----3^5-------5-3--|

VERSE:
D|-----x-x-x-----12^10^9^0------x-x-x-----12^10^9^10^12--| |--12-12-12-12-12-12--|
A|-----x-x-x--------------------x-x-x--------------------| |---------------------|
F|-----x-x-x--------------------x-x-x--------------------| |---------------------|
C|--2--x-x-x-----------------2--x-x-x--------------------| |---------------------|
G|--2--x-x-x-5---------------2--x-x-x-7------------------| |---------------------|
D|--0--x-x-x-3---------------0--x-x-x-5------------------| |---------------------|

(.........picking) (.......behind fret nut)
D|--12-12-12-12-12-12--| |--x-x--|
A|---------------------| |--x-x--|
F|---------------------| |--x-x--|
C|---------------------| |-------|
G|---------------------| |-------|
D|---------------------| |-------|

CHORUS:
D|---------------------------------------------| |------------------------------------------|
A|---------------------------------------------| |------------------------------------------|
F|---------------------------------------------| |------------------------------------------|
C|-2-2--2-2--2-2--2-2--2-2--2-2--2-2--2-2------| |------------------------------------------|
G|-2-2--2-2--2-2--2-2--2-2--2-2--2-2--2-2------| |--2-2--2-2--2-2--2-2--2-2--2-2--5---5---5-|
D|-0-0--0-0--0-0--0-0--0-0--0-0--0-0--0-0-12--| |--0-0--0-0--0-0--0-0--0-0--0-0--3-0-3-0-3-|
BRIDGE: (.........................12x)
D|-------------------------------------------------------|
A|-------------------------------------------------------|
F|-------------------------------------------------------|
C|-------------------------------------------------------|
G|--2-2-2-2-2-2-2-2-2-2-3---2-2--2-2-2-2-2--2-2-2-2-2-3--|
D|--0-0-0-0-0-0-0-0-0-0-1---0-0--0-0-0-0-0--0-0-0-0-0-1--|
(.........4x)
D|----------------|
A|----------------|
F|----------------|
C|--2-------------|
G|--2--------2-3--|
D|--0--------0-1--|
OUTRO: (.......................4x)
D|----------------------------------|
A|----------------------------------|
F|----------------------------------|
C|--2-2--2-2---------------------2--|
G|--2-2--2-2--------3^5^3--------2--|
D|--0-0--0-0--0-3^5-------5-3----0--|

Song Structure: Legend:
Intro / = slide up
Verse = slide down
Chorus ^ = hammer on/off
Stanza P.M.= palm mute
Chorus x = dead string
Bridge
last part of Intro
Outro
Другие песни: