SkatalitesLatino Goes Ska (bass) Текст

0 Голосов
Bass

Intro:
[-----------5---------5------------------
----------------8--------6---------8-----
----6--------------------------8---------
----------------------------------------- } REPEAT 4 TIMES

(А)
---------------------------------------3-----------3--
1111--------3333-----------3----------3---------------
----------1------------1----11---------1--------------
------------------------------------------------------ } 3 TIMES

(В)
---------------------------------------------------------------------------
1111---1111------3333-------33-------------1111---------1111-----33--------
------------------------------------------------11----------------------11-

------------------------------------------333------333--
-111-----111---111-----111------------------------------
--------------------------------------------------------
--------------------------------------------------------] } REPEAT

For the solos it's the same thing listed here:
[------------------------------------------
1111----1111------3333--------------------
------------------------------------1111--
------------------------------------------]
Другие песни: